Cifra Club

Aprenda

Follow Your Heart

Triumph

Cifra: Principal (violão e guitarra)
Tom: E
Thunder Seven

e------------------------------------------------------------|
b------------------------------------------------------------|
g-------------8--8--9----8--8--8-9------------8--8-9---------|
d-------------9--9--9----9--9--9-9------------9--9-9---------|
a-------------7--7--7----7--7--7-7----4---7----9----------------|
e------------------------------------------0------------------|
   C# B C#   A       B
e------------------------------------------------------------|
b------------2-3-2---4-5-4h5p4--------------9----------------|
g---6--4>6---2-2-2---4-4-------4---6--4>6---9----------------|
d---6--4>6---2-2-2---4-4-----------6--4>6---9----------------|
a---4--2>4---0-0-0---2-2-----------4--2>4---7----------------|
e------------------------------------------------------------|
Chorus:                       let ring.. Dont wait any longer!!!

e--------------------|     ----------------------------------------|
b--------------------|     ---2------------------------------------|
g--6-6-6-6---2--4-4--|     ---2------------------------------------|
d--6-6-6-6---2--4-4--|     ---2------------------------------------|
a--4-4-4-4---0--2-2--|     ---0------------------------------------|
e--------------------| x4  ----------------------------------------|

Then back to first riff and cont. thats a bout it cept the solo which i dont know sorry. 
tab so be nice if i completley forgot about something....
Composição de Gil Moore / Mike Levine / Rik Emmett
420 exibições
    • ½ Tom
    • A
    • Bb
    • B
    • C
    • Db
    • D
    • Eb
    • E
    • F
    • F#
    • G
    • Ab
  • Adicionar à lista

    0 comentários

    Mostrar mais comentários

    Conseguiu tocar?

    0 Tocaram 0 Ainda não

    Grave um vídeo tocando Follow Your Heart e mande pra gente!

    00:00 / 00:00
    outros vídeos desta música
    repetir qualidade Automático
    Outros vídeos desta música
    00:00 / 00:00
    Automático

    Cifra Club Pro

    Aproveite o Cifra Club com benefícios exclusivos e sem anúncios
    7 dias grátis
    Cifra Club Pro
    Aproveite o Cifra Club com benefícios exclusivos e sem anúncios
    7 dias grátis
    OK