Cifra Club

Suitcase Blues

Triumph

Cifra: Principal (violão e guitarra)
Tom: G
 
To: *


of this tune (or Rik Emmett's "Blues in my Fingers" masterpiece)
let me know.  --  *gary  (Geoff Bowerman)

----0-1-3----6----5-3H5P3---3-------5-8-12P10---------------------|
---1-------4------3-------6----2----5-5-10-----13--10H11P10-------|
--2--------5-------------------2----5-7-10-----10-----------12-10-|
-3---------4-------------------3----7---10-----12-----------------|
-----------5-------------------4----------------------------------|
------------------3-----------------------------------------------|

-------5-------4-------------------------------------------------|
-----6--------2--------------------------------------------------|
-7-9---------3---------It's four in the morning....--------------|
-8----------2----------------------------------------------------|
-----------3-----------------------------------------------------|
-----------------------------------------------------------------|
exibições 381
Acordes para:

    0 comentários

    mostrar mais comentários

    Conseguiu tocar?

    0 tocaram 0 ainda não

    Grave um vídeo tocando Suitcase Blues e mande pra gente!

    00:00 / 00:00
    outros vídeos desta música
    repetir qualidade Automático
    Outros vídeos desta música
    00:00 / 00:00
    Automático
    OK