Cifra Club

Shogun

Trivium

Cifra: Principal
exibições 1.463
Tom: A
  Intro: o ritmo num tah certin + as notas tão certas 
e|--------------------------------------------------------------------|
B|--------------------------------------------------------------------|
G|--------------------------------------------------------------------|
D|-7/9-55555555-77-9910-10-44444444-55-77-7/9-55555555-77-99-77775555-|
A|--------------------------------------------------------------------|
E|-5/7-33333333-55-77-8--8-22222222-33-55-5/7-33333333-55-77-55553333-|


   Intro parte 2 e tbm o riff do 
e|---------------------------------------------------------------|
B|---------------------------------------------------------------|
G|---------------------------------------------------------------|
D|---------------------------------------------------------------|
A|--------2------------2------------3----------------------------|
E|-0-2h3h5--0-0-0-2h3h5--0-0-0-2h3h5--0-0-0-2h3h5-3~~~~-2~~~~~---|

  essa é a 2º guitarr por tras do riff do verso 
e|---------------------------------------------------------------|
B|---------------------------------------------------------------|
G|-9~-11~-12~-14~-------9~-11~--12~-14~--------------------------|
D|---------------------------------------------------------------|
A|-7~--9~-10~-12~-------7~--9~--10~-12~--------------------------|
E|---------------------------------------------------------------|TI

   Pre-refrão
e|---------------------------------------------------------------|
B|---------------------------------------------------------------|
G|---171616--171616--16/17\16--161414--161414--14/16\14---111111-|
D|---------------------------------------------------------------|
A|---151414--151414--14/15\14--141212--141212--12/14\12----9-9-9-|
E|-00------00------00--------00------00------00------------------|

e|---------------------------------------------------------------|
B|---------------------------------------------------------------|
G|-999-121212-111111--141414-111111-171717-161616----------------|
D|---------------------------------------------------------------|
A|-777-101010--9-9-9--121212--9-9-9-151515-141414----------------|
E|---------------------------------------------------------------|


  refrão 
e|---------------------------------------------------------------|
B|---------------------------------------------------------------|
G|---------------------------------------------------------------|
D|----------55555555---------------------------------------------|
A|-22222222-33333333-55555555--99999999--------------------------|
E|-00000000----------33333333--77777777--------------------------|


   parte das octavas pesadas ante da parte limpa


e|-------------------------------------------------------------|
B|-------------------------------------------------------------|
G|-------9-11-12-11-9-11------9-11-12-14-12-11-12------11-12-14|
D|-------------------------------------------------------------|
A|-------7--9-10--9-7--9------7--9-10-12-10--9-10-------9-10-12|
E|-000000---------------000000-------------------000000--------|

  
e|-------------------------------------------------|
B|-------------------------------------------------|
G|-16-14-12-14------12-14-16-17-16-14-16-----------|(x2)
D|-------------------------------------------------|
A|-14-12-10-12------10-12-14-15-14-12-14----2----2-|
E|------------000000---------------------00-0-00-0-|

  bem antes da parte limpa
e|---------------------------------------------------------------|
B|---------------------------------------------------------------|
G|-------12--------12\11---------11/14--------14/20-------20/21~-|
D|---------------------------------------------------------------|
A|-------10--------10\-9----------9/12--------12/18-------18/19~-|
E|000-000---000-000------000-000-------000-000-----000-000-------|

   parte limpa
b|---------55--------|
G|--77-77----4-------|
D|-------------------|
A|-5--5--4-----4~----|
E|-------------------|
B|-------------------|

logo antes dele cantar esse riff fica por tras da parte limpa 
solo limpo

b|--------------------------------------|
G|--77--77--66---66---77---99--66--66---|
D|--------------------------------------|
A|-5---5---4---4----5----7----4---4-----|
E|--------------------------------------|
B|--------------------------------------|

  parte cantando 
b|--------------------------------------|-------------------------|
G|--77--6-4-6---7-6----77---44--11-12-9-|---1212-11-11--99--7-----|
D|--------------------------------------|-------------------------|
A|-5---4------4----44-5---2----9-9-10-7-|-10----9-----7---5-------|
E|--------------------------------------|-------------------------|
B|--------------------------------------|-------------------------|


   Im a witness to the....
b|---5-555-77-875-----|--5-7-8/10-10-8-7-5-7-|
G|--------------------|----------------------|
D|-0--------------(X3)|-0--------------------|
A|--------------------|----------------------|
E|--------------------|----------------------|
B|--------------------|----------------------|

  take all you have sacrificed
b|3~---3~~--|-------------------------------|
G|2~---2~~--|-------------------------------|
D|0~---0~~--|-------------------------------|
A|----------|------------( parte com dist)--|
E|-(limpa)--|---5~---5~---------------------|
B|----------|---3~---3~---------------------|


   Time has come to face all evil....
e|-----------------------------|----------------------------------|
B|-----------------------------|----------------------------------|
G|-9-12-11-14-12-16-14-11------|-9-12-11-14-12-16-17-16-----------|
D|-------------------------(x3)|----------------------------------|
A|-7-10--9-12-10-14-12--9------|-7-10--9-12-10-14-15-14-----------|
E|-----------------------------|----------------------------------|
                        

b|-------------------------------------------------------------------|
G|-------------------------------------------------------------------|
D|-9----------9--9--11----------11--11--12----------12--12---14------|
A|-------------------------------------------------------------------|
E|-7---2~-----7--7---9---2~------9---9--10---2~-----10--10---12---2~-|
B|--00-0~-0000-00-00--00-0~-0000--00--00--00-0~-0000--00---00--00-0~-|

e|---------------------------|
B|---------------------------|
G|----14--14--17\16---17\16--|
D|---------------------------|
A|----12--12--15\14---15\14--|
E|0000--00--00------00-------|

   riff solo
e|---------------------------------|
B|---------------------------------|
G|---------------------------------|
D|---------------------------------|
A|--7-5h7--9-7h9-------------------|
E|-0-0---00-0---0-0235-0357-057875-|

e|--------------------------------------------------------------------------------------------------
B|--------------------------------------------------------------------------------------------------
G|--------------------------------------------------------------------------------------------------
D|--------------------------------------------------------------------------------------------------
A|--------------------------------------------------------------------------------------------------
E|-0235-0357-057875-0235-0357-057875-0235-0357-057875-0578-07810-081012-081012-0101214-01214151412--


    depois o solo do Matt com o riff por tras 
e o resto  do riff abaixo 


e|--------------------------------------------------------------------------------------------------
B|--------------------------------------------------------------------------------------------------
G|--------------------------------------------------------------------------------------------------
D|--------------------------------------------------------------------------------------------------
A|--------------------------------------------------------------------------------------------------
E|-0235-0357-057875-0235-0357-057875-0235-0357-057875-0578-07810-081012-081012-0101214-01214151412--

e|-----------------------------------------------------------------------------------|
B|-----------------------------------------------------------------------------------|
G|-----------------------------------------------------------------------------------|
D|-----------------------------------------------------------------------------------|
A|-----------------------------------------------------------------------------------|
E|-12-0-12-0-12-0-12-0-12-0-12-0-12-0-12-0-14-0-14-0-14-0-14-0-14-0-14-0-14-0-14-0---|

e|--------------------------------------------------------------------------------------------------
B|--------------------------------------------------------------------------------------------------
G|--------------------------------------------------------------------------------------------------
D|--------------------------------------------------------------------------------------------------
A|--------------------------------------------------------------------------------------------------
B|-15-0-15-0-15-0-15-0-15-0-15-0-15-0-15-0-17-0-17-0-17-0-17-0-20-0-20-0-20-0-20-0------------------


o final não me mandaram então desculpem-me

        criticas são bem vindas e como eu disse optem pelo guitar pro

| /  slide up
| \  slide down
| h  hammer-on
| p  pull-off
| ~  vibrato
| +  harmonic
| x  Mute note
Acordes para:
    Composição: TriviumColaboração e revisão:
    • luiz magalhaes

    0 comentários

      mostrar mais comentários

      Conseguiu tocar?

      0tocaram0ainda não

      Grave um vídeo tocando Shogun e mande pra gente!

      00:00 / 00:00
      outros vídeos desta música
      repetirqualidadeautomática
      Outro vídeos desta música
        00:00 / 00:00
        automática
        OK