Cifra Club

Heathens

Twenty One Pilots

Cifra: Principal (violão e guitarra)
tom: C
[Primeira Parte] e [Segunda Parte]

E|-------------------------------------------------------------|
B|--0-----0-----0-----0----0-----0-----0---0-------------------|
G|--5-----5-----2-----2----1-----1-----1---1-------------------|
D|-----5----5------2-----2-----2----2----2----2----------------|
A|--3-----------0----------------------------------------------|
E|-------------------------0-----------------------------------|

E|-------------------------------------------------------------|
B|--0-----0-----0-----0----0-----0-----0---0-------------------|
G|--5-----5-----2-----2----1-----1-----1---1-------------------|
D|-----5----5------2-----2-----2----2----2----2----------------|
A|--3-----------0----------------------------------------------|
E|-------------------------0-----------------------------------|

E|-------------------------------------------------------------|
B|--0-----0-----0-----0----0-----0--------3------1-------------|
G|--5-----5-----2-----2----1-----1--------0------0-------------|
D|-----5----5------2-----2-----2----2--------2------2----------|
A|--3-----------0----------------------------------------------|
E|-------------------------0-----------------------------------|

E|-------------------------------------------------------------|
B|--0-----0-----0-----0----0-----0-----0---0-------------------|
G|--5-----5-----2-----2----1-----1-----1---1-------------------|
D|-----5----5------2-----2-----2----2----2----2----------------|
A|--3-----------0----------------------------------------------|
E|-------------------------0-----------------------------------|

[Primeira Parte]

C5                 A9                E
All my friends are heathens, take it slow
C5               A9              E
Wait for them to ask you who you know
   C5              A9          E
Please don't make any sudden moves
     C5             A9          E
You don't know the half of the abuse

[Segunda Parte]

C5                 A9                E
All my friends are heathens, take it slow
C5               A9              E
Wait for them to ask you who you know
   C5              A9          E
Please don't make any sudden moves
     C5             A9          E
You don't know the half of the abuse

[Pré-Refrão]

C5
Welcome to the room of people
                                   E
Who have rooms of people that they loved one day

Docked away
A9
Just because we check the guns at the door
                 E
Doesn't mean our brains will change from hand grenades
C5                       A9                         E
  You'll never know the psychopath sitting next to you
                                               C5
You'll never know the murderer sitting next to you
                      A9                       B7
You'll think, how'd I get here sitting next to you?
                                       E7/4
But after all I've said, please don't forget
 
C5                 A9                E
All my friends are heathens, take it slow
C5               A9              E
Wait for them to ask you who you know
   C5              A9          E
Please don't make any sudden moves
     C5             A9          E
You don't know the half of the abuse

C5
  We don't deal with outsiders very well
E
  They say newcomers have a certain smell
A9
  You have trust issues, not to mention
E
  They say they can smell your intentions
C5                      A9                        E
  You'll never know the freakshow sitting next to you
                                              C5
You'll have some weird people sitting next to you
                        A9                        B7
  You'll think "How'd I get here, sitting next to you"
                                      E7/4
But after all I've said, please don't forget

 C5  A9  E  C5  A9  E
(Watch it, watch it)

C5                 A9                E
All my friends are heathens, take it slow
C5               A9              E
Wait for them to ask you who you know
   C5              A9          E
Please don't make any sudden moves
     C5             A9          E
You don't know the half of the abuse

C5                 A9                E
All my friends are heathens, take it slow
(Watch it)
C5               A9              E
Wait for them to ask you who you know
(Watch it)
C5                 A9                E
All my friends are heathens, take it low
(Watch it)
C5               A9              E
Wait for them to ask you who you know
(Watch it)

C5                  A9                   E
Why'd you come, you knew you should have stayed
  C5                A9            E
I tried to warn you just to stay away (It´s blasphemy)
    C5              A9           E
And now they're outside ready to bust
    C5            A9              E
It looks like you might be one of us
00:00 / 00:00
Outros vídeos desta música
Repetir
Outros vídeos desta música
Composição de Tyler Joseph
214.287 exibições
    • ½ Tom
    • A
    • Bb
    • B
    • C
    • Db
    • D
    • Eb
    • E
    • F
    • F#
    • G
    • Ab
  • Adicionar à lista

    0 comentários

    Ver todos os comentários

    Conseguiu tocar?

    148 Tocaram 11 Ainda não

    Grave um vídeo tocando Heathens e nos envie!

    Entre para oCifra Club PRO

    Tenha acesso a benefícios exclusivos no App e no Site

    • Chega de anúncios

    • Prioridade de compra em lançamentos

    • Mais recursos no app do Afinador

    • Atendimento Prioritário

    • Descontos nos produtos Cifra Club

    • Ajude a produzir mais conteúdo

    00:00 / 00:00

    Cifra Club Pro

    Aproveite o Cifra Club com benefícios exclusivos e sem anúncios
    Cifra Club Pro
    Aproveite o Cifra Club com benefícios exclusivos e sem anúncios
    OK