Cifra Club

Aprenda

Bang Your Head

Twisted Sister

Cifra: Principal (violão e guitarra)
Tom: D
        Intro e Refrão:
e|--------------------------------¬
B|--------------------------------¬
G|--2----5----------5---5--2------¬
D|--2----5--5----5--5-5-5--2------¬
A|--0----3--5----5--3-5-3--0------¬
E|----------3----3----3-----------¬

            Verso:
e|--5------7-------8-------7-------¬
B|--5------7-------8-------7-------¬
G|--5------7-------8-------7-------¬   2X
D|--7------9-------10------9-------¬
A|--7------9-------10------9-------¬
E|--5------7-------8-------7-------¬

e|--5-5-*--5/7-*--5/8--*--5/7--7-7-¬
B|--5-5-*--5/7-*--5/8--*--5/7--7-7-¬
G|--5-5-*--5/7-*--5/8--*--5/7--7-7-¬
D|--7-7-*--7/9-*--7/10-*--7/9--9-9-¬
A|--7-7-*--7/9-*--7/10-*--7/9--9-9-¬
E|--5-5-*--5/7-*--5/8--*--5/7--7-7-¬
   *abafe o som varias vezes

e|--5-5~---5/7~---5/8~~---5/7--7-7-¬
B|--5-5~---5/7~---5/8~~---5/7--7-7-¬
G|--5-5~---5/7~---5/8~~---5/7--7-7-¬
D|--7-7~---7/9~---7/10~---7/9--9-9-¬
A|--7-7~---7/9~---7/10~---7/9--9-9-¬
E|--5-5~---5/7~---5/8~~---5/7--7-7-¬

        Solo:
e|---------------------------------¬
B|---------------------------------¬
G|-14-14-14-12-14-12-14/17~~-------¬
D|---------------------------------¬
A|---------------------------------¬
E|---------------------------------¬

e|---------------------------------¬
B|---------------------------------¬
G|-17-14-12-14-17-14/~~------------¬
D|---------------------------------¬
A|---------------------------------¬
E|---------------------------------¬

e|---------------------------------¬
B|---------------------------------¬
G|-12/14/12/14/12/14/12/14-14/17~~-¬
D|---------------------------------¬
A|---------------------------------¬
E|---------------------------------¬

e|---------------------------------¬
B|---------------------------------¬
G|-17-14-12-14-17-14/~~------------¬
D|---------------------------------¬
A|---------------------------------¬
E|---------------------------------¬

e|---------------------------------¬
B|---------------------------------¬
G|-17-14-12-14-17-14/~~------------¬
D|---------------------------------¬
A|---------------------------------¬
E|---------------------------------¬

e|---------------------------------¬
B|---------------------------------¬
G|-17-14-12-14-17-14/~~------------¬
D|---------------------------------¬
A|---------------------------------¬
E|---------------------------------¬

e|---------------------------------¬
B|---------------------------------¬
G|-17/19-17-22-19-17-22-19---------¬
D|---------------------------------¬
A|---------------------------------¬
E|---------------------------------¬

e|---------------------------------¬
B|---------------------------------¬
G|-17/19-17-22-19-17-22-19---------¬
D|---------------------------------¬
A|---------------------------------¬
E|---------------------------------¬

e|---------------------------------¬
B|-17/19-17-14-17-19-17-14-17-19---¬
G|---------------------------------¬
D|---------------------------------¬
A|---------------------------------¬
E|---------------------------------¬
Colaboração e revisão:
  • Giancarlo Francesco
2.138 exibições
    • ½ Tom
    • A
    • Bb
    • B
    • C
    • Db
    • D
    • Eb
    • E
    • F
    • F#
    • G
    • Ab
  • Adicionar à lista

    0 comentários

    Mostrar mais comentários

    Conseguiu tocar?

    0 Tocaram 0 Ainda não

    Grave um vídeo tocando Bang Your Head e mande pra gente!

    00:00 / 00:00
    outros vídeos desta música
    repetir qualidade Automático
    Outros vídeos desta música
    00:00 / 00:00
    Automático

    Cifra Club Pro

    Aproveite o Cifra Club com benefícios exclusivos e sem anúncios
    7 dias grátis
    Cifra Club Pro
    Aproveite o Cifra Club com benefícios exclusivos e sem anúncios
    7 dias grátis
    OK