Cifra Club

S.M.F.

Twisted Sister

Tab de baixo: Principal
|-----|-----|-----|-----|-----|--------|-----|-----|-----|---------|------------------------|
|-----|-----|-----|-----|-----|--------|-----|-----|-----|--5---4--|------------------------|
|-----|-----|-----|-----|-----|-----5--|-----|-----|--5--|---------|------------------------|
|-----|-----|-----|-----|-----|--3-----|--5--|--3--|-----|---------|--0---0--0--0--0--0--0--|

|---------------------|------------------------|---------------------|
|---------------------|------------------------|---------------------|
|---------------------|------------------------|---------------------|
|--0--0--0--0--3---2--|--0---0--0--0--0--0--0--|--0--0--0--0--3---2--|

   black...                                       nothing...
   caught...                                      and...
   we're...                                       we're...
|------------------------|---------------------|------------------------|---------------------|
|*-----------------------|---------------------|------------------------|---------------------|
|*-----------------------|---------------------|------------------------|---------------------|
|--0---0--0--0--0--0--0--|--0--0--0--0--3---2--|--0---0--0--0--0--0--0--|--0--0--0--0--3---2--|

|------------------------|---------------------|------------------------|---------------------|
|------------------------|---------------------|------------------------|---------------------|
|------------------------|---------------------|------------------------|---------------------|
|--0---0--0--0--0--0--0--|--0--0--0--0--3---2--|--0---0--0--0--0--0--0--|--0--0--0--0--3---2--|

|------------------------|---------------------|------------------------|---------------------|
|------------------------|---------------------|------------------------|---------------------|
|--0---0--0--0--0--0--0--|--0--0--0--0---------|--0---0--0--0--0--0--0--|--0--0--0--0---------|
|------------------------|--------------3---2--|------------------------|--------------3---2--|

|------------------------|---------------------|------------------------|---------------------|
|------------------------|---------------------|------------------------|---------------------|
|------------------------|---------------------|------------------------|---------------------|
|--0---0--0--0--0--0--0--|--0--0--0--0--3---2--|--0---0--0--0--0--0--0--|--0--0--0--0--3---2--|

|---------|-------------|---------|-------------|-------------|---------------------|-------------|
|---------|-------------|---------|-------------|-------------|---------------------|-------------|
|--0---0--|-------------|--0---0--|-------------|----------8--|--3--3--3--3---------|----------8--|
|---------|--3---3---3--|---------|--3---3---2--|--0---3------|--------------3---2--|--0---3------|

                                                 1____________________
|---------------------|------------|-----------|-------------|---------|
|---------------------|------------|-----------|-------------|--5---4-*|
|--3--3--3--3---------|---------5--|--5--5--5--|-------------|--------*|
|--------------3---2--|--0--3------|-----------|--3---2---0--|---------|

 2__________
|-----------|----------------------|----------------------|----------------------|---------------------|
|-----------|----------------------|----------------------|----------------------|---------------------|
|-----------|----------------------|----------------------|----------------------|---------------------|
|-----------|--5---3--5---3--5--3--|--5---3--5---3--5--3--|--5---3--5---3--5--3--|--5---3---5---3---2--|

|-------------------------|----------------------|-----------------------------|--------------------------|
|-------------------------|----------------------|-----------------------------|--------------------------|
|-------------------------|----------------------|-----------------------------|--------------------------|
|--0---0---0--0--0--0--0--|--0--0--0---0--3---2--|--0---0---0---0---0---0---0--|--0--0--0--0--0--0--0--0--|

|----------------------|-----------------------|-----------------------|-----------------------|---------|
|----------------------|-----------------------|-----------------------|-----------------------|---------|
|----------------------|-----------------------|-----------------------|-----------------------|--3---3--|
|--5---3--5--3--5---3--|--5---3--5---3--5---3--|--5---3--5---3--5---3--|--5---3--5---3--5---3--|---------|

|-------------|---------|-------------|
|-------------|---------|------5---4--|
|--3---3---3--|--5---5--|--5----------|
|-------------|---------|-------------|

CODA
   scream..
|---------|-------------|
|---------|-------------|
|--0---0--|-------------|
|---------|--3---3---3--|

   are be...    you're...
|------------|-------------|--------|------------------|--------|------------------|--------|--------------|
|------------|-------------|--------|------------------|--------|------------------|--------|--------------|
|--0---0-----|-------------|--------|--5--5--5---------|--------|--5--5--5---------|--------|--5--5--5--5--|
|------------|--3---3---2--|--0--3--|-----------3---2--|--0--3--|-----------3---2--|--0--3--|--------------|

|-------------|
|-------------|
|-------------|
|--3---2---0--|
exibições 290
Composição: Snider Colaboração e revisão:
  • valdir júnior

0 comentários

mostrar mais comentários

Conseguiu tocar?

0 tocaram 0 ainda não

Grave um vídeo tocando S.M.F. e mande pra gente!

00:00 / 00:00
outros vídeos desta música
repetir qualidade Automático
Outros vídeos desta música
00:00 / 00:00
Automático
OK