Cifra Club

Summer Breeze

Type O Negative

Cifra: Principal (violão e guitarra)
Selo Cifra Club: esta cifra foi revisada para atender aos critérios oficiais da nossa Equipe de Qualidade.
tom: G
  Riff 1                                                                         
E||-----------------------------------------------------------------------|
B||-----------------------------------------------------------------------|
G||-----------------------------------------------------------------------| 
D||-----------------------------------------------------------------------|
A||-----------5--2--------------------------------------------------------|
E||----0--3---------5--3---2h3p2--0--0-0-0---0-0-0------------------------| 
                                                                                    
E||-----------------------------------------------------------------------|   
B||-----------------------------------------------------------------------| 
G||-----------------------------------------------------------------------|         
D||-----------------------------------------------------------------------|         
A||-----------5--2--------------------------------------------------------|         
E||----0--3---------5--3---2h3p2--0--0-0-0---0-0-0-3----------------------|          

  Riff 2
E||-----------------------------------------------------------------------|
B||-----------------------------------------------------------------------|
G||-----------------------------------------------------------------------|
D||----------7------------------------------------------------------------|
A||----2--5--5--7--2--x--5-x-x-x--7-9-------------------------------------|
E||----0--3-----5--0--x--3-x-x-x--5-7-------------------------------------|

E||-----------------------------------------------------------------------|
B||-----------------------------------------------------------------------|
G||-----------------------------------------------------------------------|
D||----------7-----------9-x-x-x-7-9--------------------------------------|
A||----2--5--5--7--2--x--7-x-x-x-5-7--------------------------------------|
E||----0--3-----5--0--x---------------------------------------------------|

  Riff 3
E||------------------------------------------------------------------------------|
B||------------------------------------------------------------------------------|
G||------------------------------------------------------------------------------|
D||----------------------------------------------------------------------9-7-7/9-|
A||---7--7-7-7-7-7-7-7-7/9-9--9-9-9-9-9-9-9/5-5--5-5-5/7-7-2-x-2--2-x-2--7-5-5/7-|
E||---5--5-5-5-5-5-0-5-5/7-7--7-7-7-7-7-7-7/3-3--3-3-3/5-5-0-x-0--0-x-0----------|

E||------------------------------------------------------------------------------|
B||------------------------------------------------------------------------------|
G||------------------------------------------------------------------------------|
D||------------------------------------------------------------------------------|
A||---7--7-7-7-7-7-7-7-7/9-9--9-9-9-9-9-9-9/5-5--5-5-5/7-7-2-x-2--2-x-2--7-5-7/7-|
E||---5--5-5-5-5-5-0-5-5/7-7--7-7-7-7-7-7-7/3-3--3-3-3/5-5-0-x-0--0-x-0--5-3-3/5-|

  Riff 4
E||-----------------------------------------------------------------------|
B||-----------------------------------------------------------------------|
G||-----------------------------------------------------------------------|
D||-----------------------------------------------------------------------|
A||---2-x-10-x-x-14/5-5-5/7-7/9-7-----------------------------------------|
E||---0-x-8--x-x-12/3-3-3/5-5/7-5-----------------------------------------|
  Riff 5
E||-----------------------------------------------------------------------|
B||-----------------------------------------------------------------------|
G||-----------------------------------------------------------------------|
D||------(12x)-(12x)---(12x)-(12x)---(10x)--------------------------------|
A||------12-----14-----12-----14-----9------------------------------------|
E||------10-----12-----10-----12-----7------------------------------------|
Riff 1 (2x)
Riff 2
Riff 3

Riff 1
Riff 2
Riff 3

Riff 4 (4x)
Riff 5 

Riff 2
Riff 3
Outros vídeos desta música
    7.116 exibições
      • ½ Tom
      • A
      • Bb
      • B
      • C
      • Db
      • D
      • Eb
      • E
      • F
      • F#
      • G
      • Ab
    • Adicionar à lista

    Afinação da cifra

    Afinador online

      0 comentários

      Ver todos os comentários

      Entre para o Cifra Club PRO

      Tenha acesso a benefícios exclusivos no App e no Site

      • Chega de anúncios

      • Badges exclusivas

      • Mais recursos no app do Afinador

      • Atendimento Prioritário

      • Aumente seu limite de lista

      • Ajude a produzir mais conteúdo

      Cifra Club Pro

      Aproveite o Cifra Club com benefícios exclusivos e sem anúncios
      Cifra Club Pro
      Aproveite o Cifra Club com benefícios exclusivos e sem anúncios
      OK