Cifra Club

Electric Co

U2

Cifra: Principal (violão e guitarra)
Tom: G
(riff 1 "delay+drivre")
e|-----------------------------------------------------------------|--
B|--12--12--12--12--12--12--12--12--12--12--12---X--X--X--------|-
G|--11--11--9---11---11--9--11--11--11--11--11---X--X--X--------|--
D|--9---9---9---11---11--9---9---9---9---9---9----9--9--X--------|--
A|-----------------------------------------------------------------|--
E|-----------------------------------------------------------------|--
(riff 2)
e|---------------------------------------------------------------|--
B|----------------------5--7--5-------------7--9--7-------------|--
G|--------2---5--4----------------2--5--4-----------2--5--4----|--    x2
D|--------------------------------------------------------------|--
A|--------------------------------------------------------------|--
E|--------------------------------------------------------------|--

D, G, C, Em - repete duas vezes essas notas depois vai para o riff 3

e|--2--2--0--2--0--2--3--3--3--3--7-5---|-
B|--3--3--3--3--3--3--3--3--3--3--7-5---|-
G|--2--2--2--2--2--2--2--0--0--0---------|- (riff 3)
D|----------------------------------------|-
A|----------------------------------------|-
E|----------------------------------------|-
(riff 3)
Boy, stupid boy 
Don't sit at the table 
Until you're able to.

Toy, broken toy
Shout, shout, you're inside out
If you don't know.
 Em 
Electric Co.

If you don't know
  Em
Electric Co.

(riff 3)
Red, running red
Play for real
Talk and feel
Holding your head
You won't shout
You still beg
If you don't know
 Em
The Electric Co.

If you don't know.
 Em
Electric Co

riff 2 + D, G, C, Em + solo
.
If you don't know
 Em
Electric Co.


Solo 

e|----------15----------------14------|
B|-------------15-----------------13--|
G|--12--12------------11--11----------|  
D|------------------------------------|
A|------------------------------------|           
E|------------------------------------|


e|--15-------14---------15-------14---------------------------15-15-15-15----|
B|------15-------13---------15-------13--------------------------------------|
G|---------------------------------------------------------------------------| 
D|---------------------------------------------------------------------------|
A|---------------------------------------------------------------------------|
E|---------------------------------------------------------------------------|


(obs: bem não consegui tira muito riff ainda aconselho escutar bem a música antes de tocar pois os riffs em partes da musica é tocada diferente) se alguem tiver alguma dica rafaeldaluz_7@hotmail.com valeu!
exibições 8.178
Acordes para:
    Composição: Adam Clayton / Bono / Larry Mullen, Jr. / The Edge Colaboração e revisão:
    • Rafael Luz

    0 comentários

    mostrar mais comentários

    Conseguiu tocar?

    0 tocaram 0 ainda não

    Grave um vídeo tocando Electric Co e mande pra gente!

    00:00 / 00:00
    outros vídeos desta música
    repetir qualidade Automático
    Outros vídeos desta música
    00:00 / 00:00
    Automático
    OK