Cifra Club

Electrical Storm

U2

Cifra: Principal (violão e guitarra)
exibições 103.572
Tom: D
[Intro] F#m  A  E  B

E|-------------------------|
B|-/12-10---5-7--5h7p5h7---|
G|-------------------------|
D|-------------------------|
A|-------------------------|
E|-------------------------|

E|------9------9------------7-----7----------|
B|----7------7-----7------7-----7-----7------|
G|--9------9-----9------9-----9-----9--------|
D|-------------------------------------------|
A|-------------------------------------------|
E|-------------------------------------------|

F#m A           E      B             F#m
    the sea it swells like a sore head
A                   E    B    F#m
And the night it is aching
A          E           B               F#m
Two lovers lie with no sheets on their bed
A                 E       B    F#m
And the day it is breaking

A        E       B           F#m
On rainy days we go swimming out
A        E       B             F#m
On rainy days, swimming in the sound
A        E       B
On rainy days we go swimming out

D            E     A          C#m
You're in my mind all of the time
C#m           D
I know that's not enough
D                   E
If the sky can crack
           A            C#m
There must be some way back
C#m          D
To love and only love

( F#m  A  E  B )

F#m A           E      B             F#m
Car alarm won't let you back to sleep
A           E      B             F#m
You're kept awake dreaming some else's dream
A           E      B             F#m
Coffee is cold, but it will get you through
A           E      B             F#m
Compromise, that's nothing new to you
A           E      B             F#m
Let's see colours that have never been seen
A           E      B
Let's go to places no one else has been

D            E    A        C#m
You're in my mind all of the time
               D
I know that's not enough
D             E
If the sky can crack
           A         C#m
There must be some way back
             D
To love and only love

D E    F#m    A
   electrical storm
D E    F#m    A
   electrical storm
D E    F#m  A     B
   electrical storm
Baby don't cry

    F#m  A  E  B
E|-------------------------
B|-/12-10---5-7--5h7p5h7---
G|-------------------------
D|-------------------------
A|-------------------------
E|-------------------------

F#m  A  E  B
It's hot as hell, honey in this room

Sure hope the weather will break soon

The air is heavy, heavy as a truck

Hope the rain will wash away our bad luck

D5    E5    A  C#m  D5
Aaaaaaaa... aaaaaaaaa

D             E
If the sky can crack
           A         C#m
There must be some way back
              D
To love and only love

D E F#m        A
    electrical storm

D E F#m        A
    electrical storm

D E F#m        A       B
    electrical storm

F C

[Solo] Em  A

E|--------------------------------------------------------------------|
B|--------------------------------------------------------------------|
G|-4/11--4/9--4/7--6-7-6-4-2-2~~--4/11--4/9--4/7--6-7-6-4-2-2/4-4-----|
D|--------------------------------------------------------------------|
A|--------------------------------------------------------------------|
E|--------------------------------------------------------------------|

E|----------------------------------------------------------------------|
B|----------------------------------------------------------------------|
G|-4/11--4/9--4/7--6-7-6-4-2-2/4-4/6-6-6-7-7p6-6-7-7/9-11-11/9-9/11-12--|
D|----------------------------------------------------------------------|
A|----------------------------------------------------------------------|
E|----------------------------------------------------------------------|

E|--------------------------------------------------------------|
B|--------------------------------------------------------------|
G|-14-14/16--18-18/19--19-19--18-18--19-19p18-18--19-19p18-18---|
D|--------------------------------------------------------------|
A|--------------------------------------------------------------|
E|--------------------------------------------------------------|

E|--------------|
B|--------------|
G|-19-19/21~~---|
D|--------------|
A|--------------|
E|--------------|

Em  A
Baby don't cry
Baby don't cry
Baby don't cry
Baby don't cry
Acordes para:

    0 comentários

      mostrar mais comentários

      Conseguiu tocar?

      6tocaram0ainda não

      Grave um vídeo tocando Electrical Storm e mande pra gente!

      00:00 / 00:00
      outros vídeos desta música
      repetirqualidadeAutomático
      Outro vídeos desta música
        00:00 / 00:00
        OK