Cifra Club

Fez - Being Born

U2

Cifra: Principal (violão e guitarra)
Tom: F
Intro:Am F Am | Eb B F# Db

        Dm                                       Bb                   C      Bb              Bb   
e|------10-----12-----13-----12-----10-----------15-----14-----12-----10-----8---------------
B|---------------------------------------------13---------------------------------------------11-------
G|-------------------------------------------------------------------------------------------------------
D|-------------------------------------------------------------------------------------------------------
A|--------------------------------------------------------------------------------------------------------
E|-------------------------------------------------------------------------------------------------------
C                     Bb                 C 
e|------8 - 7-------------------6---5----------------
B|---------------8---6-------------------6---5-------

 Dm
Six... o’clock
           Bb
On the autoroute
Dm
Burning rubber, the burning chrome

Bay of Cadiz and ferry home
 C          Bb
Atlantic sea cut glass
 C          Bb
African sun at last

  C                   Bb                 C
e|------8 - 7-------------------6---5---------------
B|---------------8---6-------------------6---5------
     D                   E               C             
e|----------------------------------------------------------
B|---3-----5---7---3-------5---3-----------3---5------
G|-----------------------4-----------4---5-----------5--

 Dm
Lights… flash past…
         Bb
Like memories
   Dm
A speeding head, a speeding heart

I’m being born, a bleeding start
             C        Bb
The engines roar, blood curling wail

     C          Bb
Head first then foot

The heart stets sail.

(D E C Gm B F#m A)                    
e|------------------------------------------------------------------------------------------------------------------------------
B|----3-----5---7---3---------5-----3---------------3---5---------3-------------------------------2---3 - 0------------
G|-----------------------4---------------4 - 5---------------5-----------5---4---0------------2-----------------2--------
D|-----------------------------------------------------------------------------------------4-----------------------------------
A|------------------------------------------------------------------------------------------------------------------------------
E|------------------------------------------------------------------------------------------------------------------------------
exibições 1.700
Acordes para:
    Composição: Bono / Brian Eno / Danny Lanois / U2 Colaboração e revisão:
    • Isabela Albor
    • João Rocha

    0 comentários

    mostrar mais comentários

    Conseguiu tocar?

    0 tocaram 0 ainda não

    Grave um vídeo tocando Fez - Being Born e mande pra gente!

    00:00 / 00:00
    outros vídeos desta música
    repetir qualidade Automático
    Outros vídeos desta música
    00:00 / 00:00
    Automático
    OK