Cifra Club

I Will Follow

U2

Cifra: Principal (violão e guitarra)
Tom: Ab (forma dos acordes no tom de A) Afinação: Eb Ab Db Gb Bb Eb
Intro:

Parte 1 4x:
E|---------------------------------------12----12----|
B|--12-12-12-12-12-12-12-12--10-10-10-10-10-10-10----|
G|---9--9--9--9--9--9--9--9--9--9--9--9-----9--------|
D|---------------------------------------------------|
A|---------------------------------------------------|
E|---------------------------------------------------|

Parte 2 2x:
E|---------------------------------------12----12----|
B|--12-12-12-12-12-12-12-12--10-10-10-10-10-10-10----|
G|---9--9--9--9--9--9--9--9--9--9--9--9-----9--------|
D|---------------------------------------------------|
A|---------------------------------------------------|
E|---------------------------------------------------|

E|------------------------------------12----12-10-10-|
B|--12-12-12-12-12-12-12-12--10-10-10-10-10-10-10-10-|
G|---9--9--9--9--9--9--9--9--9--9--9-----------------|
D|---------------------------------------------------|
A|---------------------------------------------------|
E|---------------------------------------------------|

Verso 1:

E5              Asus4            E5                       Asus4
I was on the outside when you said you said you needed me
E5                Asus4        E5            Asus4
I was looking at myself, I was blind could not see

(Intro Parte 2)

Verso 2:
      E5            Asus4
A boy tries hard to be a man
    E5            Asus4
His mother takes him by his hand
   E5                  Asus4
If he stops to think he starts to cry
E5            Asus4
Oh why

Refrão 2x:
E5
Walk away, walk away
Asus4
Walk away, walk away
E5        Asus4
I will follow

(Intro Parte 2)

Verso 3:
E5              Asus4            E5                       Asus4
I was on the inside When they pulled the four walls down
E5                Asus4        E5            Asus4
I was looking through the window I was lost, I am found

(Refrão 2x)

(Intro Parte 2)

Interlúdio:
E|---------------(5)---(7)---------|
B|-(12)----(7)----(5)---(7)--------|
G|-(12)----(7)----(5)---(7)--------| (4x)
D|-(12)----(7)----(5)---(7)--------|
A|-(12)----------------------------|
E|-(12)----------------------------|


Your eyes make a circle
I see you when I go in there

E|-------------------------------------------------|
B|--12-12-12-12-12-12-12-12--10-10-10-10-10-10-10--|
G|---9--9--9--9--9--9--9--9--9--9--9--9---9--9--9--| (4x)
D|-------------------------------------------------|
A|-------------------------------------------------|
E|-------------------------------------------------|
  Your eyes, your eyes...

(Intro Parte 2)

Refrão 2x:
E5
Walk away, walk away
Asus4
Walk away, walk away
E5        Asus4
I will follow

E5           A
   I will follow
E5           A
   I will follow
E5           A
   I will follow

(Intro Parte 2)
exibições 39.869
Acordes para:

    0 comentários

    mostrar mais comentários

    Conseguiu tocar?

    0 tocaram 1 ainda não

    Grave um vídeo tocando I Will Follow e mande pra gente!

    00:00 / 00:00
    outros vídeos desta música
    repetir qualidade Automático
    Outros vídeos desta música
    00:00 / 00:00
    Automático
    OK