Cifra Club

Aprenda

One

U2

Cifra: Principal (violão e guitarra)
Quer fazer aulas de música com a gente? Responda essas perguntas
e nos ajude nesse projeto! →
tom: C
Intro: Am  Dsus2  Fmaj7  G
(riff)
E|----------------------------------------------------------------------------|
B|----------------------------------------------------------------------------|
G|-------5--/9--7h9p7h9-------7-5h7p5h7---/7--9-7h9p7h9-7---------------------|
D|--5h7-------------------/7--7-5h7p5h7---/7--7-7-7-7-7-7---7/9---10--9h10p9--|
A|-------0----------------/5--------------/8----------------8/10--10--10------|
E|----------------------------------------------------------------------------|

Am              Dsus2
Is it getting better
F                    G
Or do you feel the same
Am              Dsus2
Will it make it easier on you, Now..
F                        G
You got someone to blame.  You say...

C         Am
One love, one life
F               C
When it's one need in the night
             Am
One love we get to share it
F                    C
It leaves you baby if you don't care for it

(riff) Am  Dsus2  F  G

Am           Dsus2
Did I disappoint you
F                       G
Or leave a bad taste in your mouth
Am                    Dsus2
You act like you never had love
F                      G
And you want me to go without. Well is it...
C        Am
too late tonight
F                          C
To drag the past out into the light
            Am
We're one, but we're not the same
F                      C
We get to carry each other, carry each other

Dm/C  Am  F  G
One

Am                        Dsus2
Have you come here for forgiveness?
F                       G
Have you come to raise the dead?
Am                      Dsus2
Have you come here to play Jesus?
F                 G
To the lepers in your head?

C                  Am
Did I ask too much, more than a lot
F                         C
You gave me nothing, now it's all I got
                  Am
We're one, but we're not the same
F                       C
We hurt each other then we do it again

You say
C                 Am
Love is a temple, Love a higher law
C                 Am
Love is a temple, Love the higher law
     C                    G
You ask me to enter, but then you make me crawl
                        F
And I keeping holding on to what you got
                     C
When all you got is hurt

C         Am
One love, one blood
F                  C
One life, you got to do what you should
        Am
One life with each other
F       C
Sisters, brothers

C                Am
One life, but we're not the same. We get to...
F                  C
carry each other, carry each other

( C Am  F C )
One
( C Am  F  C )
One
      Am                   Dsus2            F                G
E|--------0---O---0---0---------------------0---0---0---0----3---3---3-|
B|------1---1---1---1------3---3---3---3------1---1---1--------3---3---|
G|----2------------------2---2---2---2---------------------0-----------|
D|--2-------------------------------------3----------------------------|
A|---------------------------------------------------------------------|
E|---------------------------------------------------------------------|
Composição de Adam Clayton / Bono / Larry Mullen, Jr. / The Edge
1.141.388 exibições
    • ½ Tom
    • A
    • Bb
    • B
    • C
    • Db
    • D
    • Eb
    • E
    • F
    • F#
    • G
    • Ab
  • Adicionar à lista

    0 comentários

    Ver todos os comentários

    Conseguiu tocar?

    106 Tocaram 12 Ainda não

    Grave um vídeo tocando One e nos envie!

    00:00 / 00:00
    Outros vídeos desta música
    Repetir Qualidade Automático
    Outros vídeos desta música
    00:00 / 00:00
    Automático

    Cifra Club Pro

    Aproveite o Cifra Club com benefícios exclusivos e sem anúncios
    Cifra Club Pro
    Aproveite o Cifra Club com benefícios exclusivos e sem anúncios
    OK