Cifra Club

Ordinary Love

U2

Cifra: Principal
exibições 58.430
Tom: B
(Parte 1 - 3X)
      C#m             G#m             F#4(6)          F#
E|----------------------------------------------------------------|
B|-----5-----5---------4-----4---------4-----4---------2-----2----|
G|---6-----6-----6---4-----4-----4---4-----4-----4---3-----3-----3|
D|----------------------------------------------------------------|
A|-4-----4-----4-------------------2-----2-----2------------------|
E|-----------------4-----4-----4-------------------2-----2-----2--|

(Parte 2 - 1X)
      C#m             G#m             E               F#
E|----------------------------------------------------------------|
B|-----5-----5---------4-----4---------0-----0---------2-----2----|
G|---6-----6-----6---4-----4-----4---1-----1-----1---3-----3-----3|
D|----------------------------------------------------------------|
A|-4-----4-----4--------------------------------------------------|
E|-----------------4-----4-----4---0-----0-----0---2-----2-----2--|

------------------------

Parte 1

The sea wants to kiss the golden shore
The sunlight warms your skin
All the beauty that’s been lost before
Wants to find us again
I can’t fight you anymore
It’s you I’m fighting for

Parte 2

The sea throws rocks together
But time
Leaves us polished stones

Refrão

C#m        G#m
We can't fall any further
B            F#
If we can't feel ordinary love
C#m         G#m
We cannot reach any higher
B            F#                  C#m
If we can't deal with ordinary love

Parte 1

Birds fly high in the summer sky
And rest on the breeze
The same wind will take care of you and
I will build our house in the trees
Your heart is on my sleeve
Did you put there with a magic marker?

Parte 2

For years I would believe
That the world couldn't wash it away

C#m        G#m
We can't fall any further
B                      F#
If we can't feel ordinary love
C#m         G#m
We cannot reach any higher
B            F#                   C#m
If we can't deal with ordinary love

( C#m  G#m  B  F# )

C#m         G#m       B
   Are we tough enough
    F#          C#m
For ordinary love

C#m        G#m
We can't fall any further
B                      F#
If we can't feel ordinary love
C#m         G#m
We cannot reach any higher
B            F#                   C#m
If we can't deal with ordinary love

C#m        G#m
We can't fall any further
B                      F#
If we can't feel ordinary love
C#m         G#m
We cannot reach any higher
B            F#                   C#m
If we can't deal with ordinary love

Solo:

E|---5------5-----5---5------------------------------|
B|---------------------------------------------------|
G|-6---4/6----4/6---6----4/6--9-8-6-4/6--------------|
D|---------------------------------------------------|
A|---------------------------------------------------|
E|---------------------------------------------------|
Acordes para:

    0 comentários

      mostrar mais comentários

      Conseguiu tocar?

      11tocaram1ainda não

      Grave um vídeo tocando Ordinary Love e mande pra gente!

      00:00 / 00:00
      outros vídeos desta música
      repetirqualidadeautomática
      Outro vídeos desta música
        00:00 / 00:00
        automática
        OK