Cifra Club

Please (live acoustic)

U2

Cifra: Principal (violão e guitarra)
Tom: D
(Tune 1/2 step down)

e|------------------------0--------------------------------0-------------------------------0-----------------------0--------
B|--------3------------------3--------------3-----------------3------------3-----------------3--------------3-------3------
G|-------------4-------------------4------------4------------------4------------4--------------4---------4---------------4
D|---------------------------------------------------------------------------------------------------------------------------
A|---2-------------2------------------0------------0-------------------------------------------------------------------------
E|-----------------------------------------------------------------------0------------0-------------0--3---------------------

So you never knew love until you crossed the line of grace
And you never felt wanted till you had someone slap your face
So you never felt alive until you almost wasted away
Bm                                  A    
You had to win, you couldn't just pass
Em                               G
The smartest ass at the top of the class
Bm                                        A
Your flying colours, your family tree
       Em                           G                  
And all your lessons in history

Bm            
   Please
A            
    Please
Em                      
   Please 
G                                      A
get up off your knees now
Bm
   Please
A
   Please
Em          G
   Please, leave it out


* Play beginning riff: *

And you never knew how low you'd stoop to make that call
And you never knew what was on the ground 
Until you made them crawl
So you never knew that the heaven you keep, you stole

Bm                              A
Your Catholic blues, your convent shoes
           Em                        G
Your stick-on tattoos, now they're making news
         Bm                     A
Your holy war, your northern star
         Em                                   G
Your sermon on the mount from the boot of your car
Bm         A          Em            G                              A
Please, please, please get up off your knees now
Bm         A          Em            G
Please, please, please leave it out

e|------------------------0------------
B|--------3------------------3--------
G|-------------4-------------------4-         4 X
D|------------------------------------
A|---2-------------2-----------------
E|-------------------------------------        

e|---0---0---0---0-----0---0---0---0-----
B|--3---3---3---3-----2---2---2----2----
G|--4---4---4---4-----4---4---4----4----

September, streets capsizing,

e|---0---0---0---0---0---0---0---0-----
B|--2---2---5---5---5---5---3----3----
G|--4---4---4---4---4---4---4----4----
 
Spilling over down the drain

e|---0---0---0---0----0---0---0---0-----
B|--3---3---3---3----3---3---2----2----
G|--4---4---4---4----4---4---4----4----

Shards of glass splinters like rain 

e|---0---0---0---0---0---0---0---0-----
B|--2---2---5---5---5---5---3----3----
G|--4---4---4---4---4---4---4----4----

But you could only feel your pain

e|---0---0---0---0----0---0---0---0-----
B|--3---3---3---3----3---3---2----2----
G|--4---4---4---4----4---4---4----4----

October, talking getting nowhere

e|---0---0---0---0----0---0---0---0-----
B|--3---3---3---2----3---3---5----5----
G|--4---4---4---4----4---4---4----4----

October, November, remember

e|---0---0---0---0----0---0---0---0-----
B|--5---5---5---5----3---3---3----3----
G|--4---4---4---4----4---4---4----4----

Are we just starting again?

Bm        A          Em                     G                        A
Please, please, please get up off of your knees now
Bm        A          Em                G                           A
Please, please, please, get up off your knees
Bm            A           Em                     G
'cause love is big, it's bigger than us
Bm               A                       Em            G
But love is not what you're thinking of
                Bm                                  A
It's what lovers deal, it's what lovers steal
                   Em             G
You know I've found it hard to receive
            Bm                A          Em                 Bm
Cause you, my love, I could never believe
exibições 10.769
Acordes para:
    Colaboração e revisão:
    • Léo

    0 comentários

    mostrar mais comentários

    Conseguiu tocar?

    0 tocaram 0 ainda não

    Grave um vídeo tocando Please (live acoustic) e mande pra gente!

    00:00 / 00:00
    outros vídeos desta música
    repetir qualidade Automático
    Outros vídeos desta música
    00:00 / 00:00
    Automático
    OK