Cifra Club

Spanish Eyes

U2

Cifra: Principal (violão e guitarra)
Tom: C
Essa é a introdução da versão estudio na qual o The Edge começa com esse riff

E---------------------------------------------------------
B----------15----------15-----------13-----------------13-
G----14----------14-----------14---------------14---------


E---15-----------------------
B---------13-----------13----    etc..
G----------------14----------

O verso com os acordes Dm e G é tocado assim:

E---1---1---0h1---0---1--1--1--0h1--1--1---
B---3---3---3-3---3---3--3--3--3-3--3--3---
G---2---2---2-2---2---2--2--2--2-2--2--2---
D---0---0---0-0---0---0--0--0--0-0--0--0---
A---0---0---0-0---0---0--0--0--0-0--0--0---
E---0---0---0-0---0---0--0--0--0-0--0--0---


E--3--3--3----3----3--3--3--3--3--3--3--3
B--3--3--3-3--3--3-3--3--3--3--3--3--3--3
G--0--0--0-0--0--0-0--0--0--0--0--0--0--0
D--0--0--0-0--0--0-0--0--0--0--0--0--0--0
A--2--2--2-2--2--2-2--2--2--2--2--2--2--2
E--3--3--3-3--3--3-3--3--3--3--3--3--3--3


Dm                G
Wey hey hey, baby hang on
Wey hey hey, baby hang on
Empty heart, beat tight as a drum stick
Empty love, she'll shine like a song
Wey hey hey, baby hang on

F                      C
Our love shines like rain
            Am
With those Spanish eyes
        Em
Spanish eyes


Dm                G
Wey hey hey, here she comes
Comes in colours
Know she's gonna turn the daylight on
Because I love the way you talk to me
And I love the way you walk to me
And I need you more than you need me, yeah

F                      C
Our love shines like rain
         Am
In those Spanish eyes
        Em
Spanish eyes

F                          C
I'd cross the world for green and gold
               Am                     Em
But it's those Spanish eyes that get me home
Home again


Dm            G
Hey hey, baby hang on
Wey hey hey, you know that the night is young
Dazzled by lights that shine in your eyes
I'm standing in the shadows & wait for the night
Forever in fever, forever in heat
You pick me up, don't put me out on the street
Wey hey hey, baby hang on
Wey hey hey, baby hang on
Because I love the way you talk to me
And I love the way you're mean to me
And I need you
exibições 11.347
Acordes para:

    0 comentários

    mostrar mais comentários

    Conseguiu tocar?

    1 tocaram 0 ainda não

    Grave um vídeo tocando Spanish Eyes e mande pra gente!

    00:00 / 00:00
    outros vídeos desta música
    repetir qualidade Automático
    Outros vídeos desta música
    00:00 / 00:00
    Automático
    OK