Enviar cifraEntrar

Vertigo

U2

Tab de baixo: Principal
exibições 49.635
Intro:
G|---------------------------------------------------
D|---------------------------------------------------
A|-5h7-7-5-7-7-5-------------------------------------
E|---------------0-5-5-5-5-4-3\----------------------

G|---------------------------------------------------
D|------------------7-7-7-7-6-5\---------------------
A|-/5h7-7-5-7-7-5------------------------------------
E|----------------0----------------------------------

G|---------------------------------------------------
D|---------------------------------------------------
A|-/5h7-7-5-7-7-5------------------------------------
E|----------------0-5-5-5-5-4-3\---------------------

G|---------------------------------------------------
D|------------------7-7-7-7-6-5\---------------------
A|-/5h7-7-5-7-7-5------------------------------------
E|----------------0----------------------------------

Uno, dos, tres, catorce!
[Turn it up loud, captain]


Primeira parte:
G|---------------------------------------------------
D|---------------------------------------------------
A|-/5h7-7-5-7-7-5------------------------------------
E|----------------0-5-5-5-5-4-3\---------------------

G|---------------------------------------------------
D|------------------7-7-7-7-6-5\---------------------
A|-/5h7-7-5-7-7-5------------------------------------
E|----------------0----------------------------------

G|---------------------------------------------------
D|---------------------------------------------------
A|-/5h7-7-5-7-7-5------------------------------------
E|----------------0-5-5-5-5-4-3\---------------------

G|---------------------------------------------------
D|------------------7-7-7-7-6-5\---------------------
A|-/5h7-7-5-7-7-5------------------------------------
E|----------------0----------------------------------

(...)
Lights go down, it's dark
The jungle is your head
Can't rule your heart
A feeling is so much stronger than
A thought
Your eyes are wide
And though your soul
It can't be bought
Your mind can wander


Refrão:
G|---------------------------------------------------
D|---------------------------------------------------
A|-/7-7-7-7-7-7-7-7\5-5-5-5-5-5-5\-0-----------------
E|-----------------------------------3-3-3-3-3-3-3-3-

G|---------------------------------------------------
D|---------------------------------------------------
A|-------------5-------------------------------------
E|-5-5-5-5-5-5---------------------------------------

G|---------------------------------------------------
D|---------------------------------------------------
A|-/7-7-7-7-7-7-7-7\5-5-5-5-5-5-5\-0-----------------
E|-----------------------------------3-3-3-3-3-3-3-3-

G|---------------------------------------------------
D|---------------------------------------------------
A|---------------------------------------------------
E|-5-5-5-5-5-5-5-------------------------------------

G|---------------------------------------------------
D|------------------7-7-7-7-6-5\---------------------
A|-/5h7-7-5-7-7-5------------------------------------
E|----------------0----------------------------------

G|---------------------------------------------------
D|------------------7-7-7-7-6-5\---------------------
A|-/5h7-7-5-7-7-5------------------------------------
E|----------------0----------------------------------

(...)
Hello, hello, (¡hola!)
I'm at a place called Vertigo (¿Donde estás?)
It's everything I wish I didn't know
Except you give me something I can feel, feel


Terceira parte (2x):
G|---------------------------------------------------
D|---------------------------------------------------
A|-/5h7-7-5-7-7-5------------------------------------
E|----------------0-5-5-5-5-4-3\---------------------

G|---------------------------------------------------
D|------------------7-7-7-7-6-5\---------------------
A|-/5h7-7-5-7-7-5------------------------------------
E|----------------0----------------------------------

G|---------------------------------------------------
D|---------------------------------------------------
A|-/5h7-7-5-7-7-5------------------------------------
E|----------------0-5-5-5-5-4-3\---------------------

G|---------------------------------------------------
D|------------------7-7-7-7-6-5\---------------------
A|-/5h7-7-5-7-7-5------------------------------------
E|----------------0----------------------------------

(...)
The night is full of holes
As bullets rip the sky
Of ink with gold
They twinkle as the
Boys play rock and roll
They know they can't dance
At least they know....

I can't stand the beats
I'm asking for the cheque
The girl with crimson nails
Has Jesus round her neck
Swinging to the music
Swinging to the music
Oh oh oh oh


Repetição do refrão:
G|---------------------------------------------------
D|---------------------------------------------------
A|-/7-7-7-7-7-7-7-7\5-5-5-5-5-5-5\-0-----------------
E|-----------------------------------3-3-3-3-3-3-3-3-

G|---------------------------------------------------
D|---------------------------------------------------
A|-------------5-------------------------------------
E|-5-5-5-5-5-5---------------------------------------

G|---------------------------------------------------
D|---------------------------------------------------
A|-/7-7-7-7-7-7-7-7\5-5-5-5-5-5-5\-0-----------------
E|-----------------------------------3-3-3-3-3-3-3-3-

G|---------------------------------------------------
D|---------------------------------------------------
A|---------------------------------------------------
E|-5-5-5-5-5-5-5-------------------------------------

G|---------------------------------------------------
D|---------------------------------------------------
A|-/5h7-7-5-7-7-5------------------------------------
E|----------------0-5-5-5-5-4-3\---------------------

G|---------------------------------------------------
D|------------------7-7-7-7-7-7----------------------
A|-/5h7-7-5-7-7-5------------------------------------
E|----------------0----------------------------------

(...)
Hello, hello, (¡hola!)
I'm at a place called Vertigo (¿Donde estás?)
It's everything I wish I didn't know
But you give me something I can feel, feel


Quarta parte:
G|---------------------------------------------------
D|-/7-7-7-7-7-7-7-7-7-7-7-7-7-7-7-7------------------
A|---------------------------------------------------
E|---------------------------------------------------

G|---------------------------------------------------
D|-7-7-7-7-7-7-7-7-7-7-7-7-7-7-7-7-------------------
A|---------------------------------------------------
E|---------------------------------------------------

G|---------------------------------------------------
D|-7-7-7-7-7-7-7-7-7-7-7-7-7-7-7-7\------------------
A|----------------------------------0----------------
E|---------------------------------------------------

(...)
Check mated
Hours of fun
Show meaning!


Solo de guitarra:
G|---------------------------------------------------
D|---------------------------------------------------
A|-/5h7-7-5-7-7-5------------------------------------
E|----------------0-5-5-5-5-4-3\---------------------
                                                       (2x)
G|---------------------------------------------------
D|------------------7-7-7-7-6-5\---------------------
A|-/5h7-7-5-7-7-5------------------------------------
E|----------------0----------------------------------


Quinta parte:

G|---------------------------------------------------
D|---------------------------------------------------
A|-5-7-5-7-5-7-5-7-5-7---------5-7-5-7-5-7-5-7-5\----
E|---------------------5-5-4\3-----------------------

(...)
All of this, all of this can be yours
All of this, all of this can be yours
All of this, all of this can be yours
Just give me what I want and no-one gets hurt....

Segunda repetição do refrão:

G|---------------------------------------------------
D|---------------------------------------------------
A|-7-7-7-7-7h5-5-5-5-5\------------------------------
E|----------------------3-3-3-3-5-5-5-5-5-5----------

G|---------------------------------------------------
D|---------------------------------------------------
A|-7-7-7-7-7h5-5-5-5-5\------------------------------
E|----------------------3-3-3-3-5-5-5-5-5-5----------

G|---------------------------------------------------
D|---------------------------------------------------
A|-7-7-7-7-7h5-5-5-5-5\------------------------------
E|----------------------3-3-3-3-5-5-5-5-5-5----------

G|---------------------------------------------------
D|---------------------------------------------------
A|-7-7-7-7-7h5-5-5-5-5\------------------------------
E|----------------------3-3-3-3-5-5-5-5-5-5----------

G|---------------------------------------------------
D|------------------7-7-7-7-6-5\---------------------
A|-/5h7-7-5-7-7-5------------------------------------
E|----------------0----------------------------------

G|---------------------------------------------------
D|------------------7-7-7-7-6-5\---------------------
A|-/5h7-7-5-7-7-5------------------------------------
E|----------------0----------------------------------

G|---------------------------------------------------
D|------------------7-7-7-7-6-5\---------------------
A|-/5h7-7-5-7-7-5------------------------------------
E|----------------0----------------------------------

G|---------------------------------------------------
D|------------------7-7-7-7-6-5\---------------------
A|-/5h7-7-5-7-7-5----------------7-------------------
E|----------------0--------------0-------------------

(...)
Hello, hello
We're at a place called Vertigo
Lights go down and all I know
Is that you give me something

I can feel your love teaching me how
Your love is teaching me how, how to kneel...

Yeah yeah yeah yeah
  • 1
  • 2
  • 3
  • 4
  • 5
  • 6
  • 7
  • 8
  • 9
  • 10
  • 11
  • 12

    0 comentários

      mostrar mais comentários

      Conseguiu tocar?

      11tocaram0ainda não

      Grave um vídeo tocando Vertigo e mande pra gente!

      00:00 / 00:00
      outros vídeos desta música
      repetirqualidadeautomática
      • automática
      Outro vídeos desta música
        Capítulos
        • Início
        • Tocando a música
        • Tocando Introdução e Primeira Parte
        • Ensinando Introdução e Primeira Parte
        • Tocando Primeiro Refrão
        • Ensinando Primeiro Refrão
        • Tocando Quarta Parte
        • Ensinando Quarta Parte
        • Tocando Quinta Parte
        • Ensinando Quinta Parte
        • Encerramento
        00:00 / 00:00
        automática
        • automática
        Acordes para:violão e guitarra
        dificuldadeexibiçõescontribuições
        2 versões de Tab de baixoexibiçõescontribuições
        1 versão de Tab de bateriaexibiçõescontribuições
        2 versões de Guitar Proformatodownloadscontribuição
        1 versão de Partiturasformatodownloadscontribuição
        fecharplay/pause subir/descer velocidade
        fechar
        OK
        Feedback