Cifra Club

With Or Without You

U2

Tab de baixo: Principal
Introdução verso e refrões
G-----------------------------------------------------------------------------
D-----------------------------------------------------------------------------
A-----------------------------------------------------------------------------
E-10-10-10-10-10-10-10-10--5-5-5-5-5-5-5-5--7-7-7-7-7-7-7-7--3-3-3-3-3-3-3-3--

seria bom variar as vezes
G|------------------------------------------
D|-------------------------------------------
A|--5-5-5-5-5-5-5-5-5------------------2-2-2-2-2-2-2---------
E|--------------------5-5-5-5-5-5-5--5-----------------3-3-3-3-3-3-3-3------------------

Ponte
G|------------7-----------7-----
D|------------------------------
A|--5-5-5-5-5----5-5-5-5-5------
E|------------------------------
ouvindo a musica vai saber quantas vezes,ai logo quando entrar o teclado ja volta o acompanhamento abaixo.
G|-------------------------------------------------------------------------------
D|-------------------------------------------------------------------------------
A|--5-5-5-5-5-5-5-5-5------------------2-2-2-2-2-2-2-----------------------------
E|--------------------5-5-5-5-5-5-5--5-----------------3-3-3-3-3-3-3-3-----------
exibições 41.266
Composição: Adam Clayton / Bono / Larry Mullen, Jr. / The Edge Colaboração e revisão:
  • Glauco Oliveira
  • Begão

0 comentários

mostrar mais comentários

Conseguiu tocar?

17 tocaram 0 ainda não

Grave um vídeo tocando With Or Without You e mande pra gente!

00:00 / 00:00
outros vídeos desta música
repetir qualidade Automático
Outros vídeos desta música
00:00 / 00:00
Automático
OK