Cifra Club

Cíumes

Ultraje a Rigor

Cifra: Principal (violão e guitarra)
tom: G
 Intro: G D C D G D C D (Solo)
  
  

E|-------------------------------------------------------------------------------------  
B|--12~~-^ 7~~---------------------------------------------------------------------
G|--------------------------------------------------------------------------------------
D|--------------------------------------------------------------------------------------
A|---------------------------------------------------------------------------------------
E|---------------------------------------------------------------------------------------
  
  
  
E|---------10-7-8-7-5-8-5-7-10-7-5------10-7-8-7-5-8-5-7-10-7-5--------------------  
B|--8-8-8-----------------------------8-------------------------------------------------
G|--------------------------------------------------------------------------------------
D|--------------------------------------------------------------------------------------
A|---------------------------------------------------------------------------------------
E|---------------------------------------------------------------------------------------

  
   
G             D       C         D
   Eu quero levar uma vida moderninha   
G           D         C          D
   Deixar minha menininha sair sozinha   
G            D               C           D
   Não ser machista e não bancar o possessivo   
G             D          C            D
   Ser mais seguro e não ser tão impulsivo   
G            Bm         C   D
   Mas eu me mordo de ciú...me   
G            Bm         C   D
   Mas eu me mordo de ciú...me   
   

(Solo)  1  
  
E|-----10-7-8-7-5-8-5-7-10-7------------10-7^-8-7-5-7-10-7-5----------3--------------------  
B|--8---------------------------8-8-8-------------------------8-7----------------------
G|-------------------------------------------------------------------------------------------
D|-------------------------------------------------------------------------------------------
A|-------------------------------------------------------------------------------------------
E|-------------------------------------------------------------------------------------------
tablatura
  
G             D            C          D
   Meu bem me deixa sempre muito à vontade   
G         D               C            D
   Ela me diz que é muito bom ter liberdade   
G             D             C            D
   Que não há mal nenhum em ter outra amizade   
G           D              C          D
   E que brigar por isso é muita crueldade   
G            Bm         C   D
   Mas eu me mordo de ciú...me   
G            Bm         C   D
   Mas eu me mordo de ciú...me    
  

(Solo)2  
  
E|-------------------------------------------------------------------------------------  
B|---------------------------------------------7h9-7~-------------------------------
G|---------4h5-4---------------------4h5-4-----------7h9-7~---------------------
D|-4h5-----------5-----------4h5-----------5---------------------------------------
A|-----5-----------5-5h7-5-------5-----------5-------------------------------------
E|-------7-------------------------7--------------------------------------------------
   
E|-------------------3----------3-----------7--5--3---15--12--10--7--7------------------7------------------   
B|----------------0----5--3-------5--3----7--5--3----15--12--10--7--7--5~----------7----7--8~~~~----
G|-2-4---------0----------------------------------------------------------------5~---9-----------------------
D|------4--2-0------------------------------------------------------------------------------------------------
A|-------------------------------------------------------------------------------------------------------------
E|-------------------------------------------------------------------------------------------------------------
tablatura
   
   
    
G             D       C         D
   Eu quero levar uma vida moderninha   
G           D         C          D
   Deixar minha menininha sair sozinha   
G            D               C           D
   Não ser machista e não bancar o possessivo   
G             D          C            D
   Ser mais seguro e não ser tão impulsivo   
G            Bm         C   D
   Mas eu me mordo de ciú...me   
G            Bm         C   D
   Mas eu me mordo de ciú...me   
A   C   D   Dm
Ooh Ooh Ooh Ooh     
    
G            Bm         C   D
   Mas eu me mordo de ciú...me   
G            Bm         C   D
   Mas eu me mordo de ciú...me   
   
   
G         Bm      C                D
Ciúme     Ciúme   eu me mordo de ciúmes
Composição de Roger Moreira
Colaboração e revisão:
  • Alison Meira
18.011 exibições
    • ½ Tom
    • A
    • Bb
    • B
    • C
    • Db
    • D
    • Eb
    • E
    • F
    • F#
    • G
    • Ab
  • Adicionar à lista

    0 comentários

    Ver todos os comentários
    00:00 / 00:00
    Outros vídeos desta música
    Repetir Qualidade Automático
    Outros vídeos desta música
    00:00 / 00:00
    Automático

    Cifra Club Pro

    Aproveite o Cifra Club com benefícios exclusivos e sem anúncios
    Cifra Club Pro
    Aproveite o Cifra Club com benefícios exclusivos e sem anúncios
    OK