Cifra Club

Inútil

Ultraje a Rigor

Cifra: Principal
exibições 332.818
Tom: G
Intro:
  E5     G5        E5         G5
E|----------------------------------|
B|----------------------------------|
G|----------------------------------|
D|-2-2-0-5--5-4-0-2-2--0-5-5-4-0----|  (3x)
A|----------------------------------|
E|----------------------------------|

E|----------------------------------|
B|----------------------------------|
G|----------------------------------|
D|-2-2-0-5--5-4-0-------------------|
A|----------------------------------|
E|----------------------------------|

E|---7*----|
B|---7*----|
G|---7*----|
D|---------|
A|---------|
E|---------|

                                     Em
A gente não sabemos escolher presidente
                                     Em
A gente não sabemos tomar conta da gente
                                     Em
A gente não sabemos nem escovar os dente
                                     Em
Tem gringo pensando que nóis é indigente

Refrão:
Em G   Em G
Inútil
Em    G    Em    G
A gente somos inútil

                               Em
A gente faz carro e não sabe guiar
                                       Em
A gente faz trilho e não tem trem pra botar
                                     Em
A gente faz filho e não consegue criar
                                      Em
A gente pede grana e não consegue pagar

Refrão:
E5 G5   E5 G5
Inútil
E5    G5    E5    G5
A gente somos inútil
Solo:
Solo:
 (E5 G5 E5 G5)

E|---------------7*---12*---|
B|----12*---7*---7*---12*---|
G|----12*---7*---7*---12*---|
D|----12*---7*--------------|
A|--------------------------|
E|--------------------------|

E|---10/12-12-12-10/12-12-12-10/12-12-12-10/12--3x---
B|---------------------------------------------------|
G|---------------------------------------------------|
D|---------------------------------------------------|
A|---------------------------------------------------|
E|---------------------------------------------------|

E|---10>12-12-12----12-12-12-------------|
B|---------------12----------12^-10------|
G|----------------------------------12---|
D|---------------------------------------|
A|---------------------------------------|
E|---------------------------------------|

E|---------------------------------------------------------|
B|---------------------------------------------------------|
G|----------------------------------------------12-14------|
D|----------------12-14---(16)------------12-14-------12---|
A|-12-14----12-14-------------12----12-14------------------|
E|---------------------------------------------------------|

E|---------------------------------------------------------|
B|---------------------------------------------------------|
G|--12h14p12----12h14p12-----------------------------------|
D|-----------12------------------12-14---------------------|
A|-------------------------12-14--------12---12h14p12-10---|
E|---------------------------------------------------------|
E5                         G5
A gente faz música e não consegue gravar
E5                            G5
A gente escreve livro e não consegue publicar
E5                           G5
A gente escreve peça e não consegue encenar
E5                        G5
A gente joga bola e não consegue ganhar

Refrão:
Em G
Inútil!
Em          G          Em G Em G
A gente somos inútil!
Em G
Inútil!
Em          G          Em G Em G
A gente somos inútil!

Em G Em D
Inútil!

Em G Em D
Inútil!

Em G Em D
Inútil!
Acordes para:

    0 comentários

      mostrar mais comentários

      Conseguiu tocar?

      91tocaram1ainda não

      Grave um vídeo tocando Inútil e mande pra gente!

      00:00 / 00:00
      outros vídeos desta música
      repetirqualidadeautomática
      Outro vídeos desta música
        00:00 / 00:00
        automática
        Capítulos
        • Início
        • Acordes da música
        • Tocando a primeira parte
        • Ritmo
        • Ensinando ritmo
        • Tocando refrão
        • Ritmo do refrão
        • Tocando refrão com o primeiro ritmo
        • Encerramento
        OK