Cifra Club

Inútil

Ultraje a Rigor

Cifra: Principal (violão e guitarra)
exibições 346.291
Tom: A
[Introdução]

(Guitarra Riff)
E|-----------------------------------------------------|
B|-----------------------------------------------------|
G|-----------------------------------------------------|
D|-2-2-0-5--5-4-0-2-2--0-5-5-4-0-----------------------|
A|-----------------------------------------------------|
E|-----------------------------------------------------|

E|-----------------------------------------------------|
B|-----------------------------------------------------|
G|-----------------------------------------------------|
D|-2-2-0-5--5-4-0-2-2--0-5-5-4-0-----------------------|
A|-----------------------------------------------------|
E|-----------------------------------------------------|

E|-----------------------------------------------------|
B|-----------------------------------------------------|
G|-----------------------------------------------------|
D|-2-2-0-5--5-4-0-2-2--0-5-5-4-0-----------------------|
A|-----------------------------------------------------|
E|-----------------------------------------------------|

E|-----------------------------------------------------|
B|-----------------------------------------------------|
G|-----------------------------------------------------|
D|-2-2-0-5--5-4-0-2-2--0-5-5-4-0-----------------------|
A|-----------------------------------------------------|
E|-----------------------------------------------------|

E|-----------------------------------------------------|
B|-----------------------------------------------------|
G|-----------------------------------------------------|
D|-2-2-0-5--5-4-0-2-2--0-5-5-4-0-----------------------|
A|-----------------------------------------------------|
E|-----------------------------------------------------|

                   H.N  .  .
E|------------------12---------------------------------|
B|---------------------12------------------------------|
G|------------------------12---------------------------|
D|-2-2-0-5--5-4-0--------------------------------------|
A|-----------------------------------------------------|
E|-----------------------------------------------------|


(Guitarra Base - 4x)
E|-----------------------------------------------------|
B|-----------------------------------------------------|
G|-----------------------------------------------------|
D|-----------------------------------------------------|
A|-2-2-2-5--5-4-0-2-2--2-5-5-4-4-----------------------|
E|-0-0-0----------0-0--0-------------------------------|


[Primeira Parte]

(Guitarra Base - 4x)
E|-----------------------------------------------------|
B|-----------------------------------------------------|
G|-----------------------------------------------------|
D|-----------------------------------------------------|
A|-2-2-2-5--5-4-0-2-2--2-5-5-4-4-----------------------|
E|-0-0-0----------0-0--0-------------------------------|

A gente não sabemos
Escolher presidente
A gente não sabemos
Tomar conta da gente
A gente não sabemos
Nem escovar os dente
Tem gringo pensando
Que nóis é indigente


[Refrão]

(Guitarra Riff - 8x)
E|-----------------------------------------------------|
B|-----------------------------------------------------|
G|-9--x-12~--12~-x--9--x-12--12-12---------------------|
D|-9--x-12~--12~-x--9--x-12--12-12---------------------|
A|-----------------------------------------------------|
E|-----------------------------------------------------|


(Guitarra Base - 8x)
E|-----------------------------------------------------|
B|-----------------------------------------------------|
G|-----------------------------------------------------|
D|-----------------------------------------------------|
A|-2-2-2-5--5-4-0-2-2--2-5-5-4-4-----------------------|
E|-0-0-0----------0-0--0-------------------------------|

Inútil
A gente somos inútil
Inútil
A gente somos inútil
Inútil
A gente somos inútil
Inútil
A gente somos inútil


[Interlúdio]

(Guitarra Riff)
E|-----------------------------------------------------|
B|-----------------------------------------------------|
G|-----------------------------------------------------|
D|-2-2-0-5--5-4-0-2-2--0-5-5-4-0-----------------------|
A|-----------------------------------------------------|
E|-----------------------------------------------------|

E|-----------------------------------------------------|
B|-----------------------------------------------------|
G|-----------------------------------------------------|
D|-2-2-0-5--5-4-0-2-2--0-5-5-4-0-----------------------|
A|-----------------------------------------------------|
E|-----------------------------------------------------|

E|-----------------------------------------------------|
B|-----------------------------------------------------|
G|-----------------------------------------------------|
D|-2-2-0-5--5-4-0-2-2--0-5-5-4-0-----------------------|
A|-----------------------------------------------------|
E|-----------------------------------------------------|

                    H.N. .
E|-----------------------------------------------------|
B|-------------------7---------------------------------|
G|---------------------7-------------------------------|
D|-2-2-0-5--5-4-0--------7-----------------------------|
A|-----------------------------------------------------|
E|-----------------------------------------------------|


(Guitarra Base - 4x)
E|-----------------------------------------------------|
B|-----------------------------------------------------|
G|-----------------------------------------------------|
D|-----------------------------------------------------|
A|-2-2-2-5--5-4-0-2-2--2-5-5-4-4-----------------------|
E|-0-0-0----------0-0--0-------------------------------|


[Segunda Parte]

(Guitarra Base - 4x)
E|-----------------------------------------------------|
B|-----------------------------------------------------|
G|-----------------------------------------------------|
D|-----------------------------------------------------|
A|-2-2-2-5--5-4-0-2-2--2-5-5-4-4-----------------------|
E|-0-0-0----------0-0--0-------------------------------|

A gente faz carro
E não sabe guiar
A gente faz trilho
E não tem trem pra botar
A gente faz filho
E não consegue criar
A gente pede grana
E não consegue pagar


[Refrão]

(Guitarra Riff - 8x)
E|-----------------------------------------------------|
B|-----------------------------------------------------|
G|-9--x-12~--12~-x--9--x-12--12-12---------------------|
D|-9--x-12~--12~-x--9--x-12--12-12---------------------|
A|-----------------------------------------------------|
E|-----------------------------------------------------|


(Guitarra Base - 8x)
E|-----------------------------------------------------|
B|-----------------------------------------------------|
G|-----------------------------------------------------|
D|-----------------------------------------------------|
A|-2-2-2-5--5-4-0-2-2--2-5-5-4-4-----------------------|
E|-0-0-0----------0-0--0-------------------------------|

Inútil
A gente somos inútil
Inútil
A gente somos inútil
Inútil
A gente somos inútil
Inútil
A gente somos inútil


[Ponte]

(Guitarra Riff)
   H.N   .    .     .
E|-----------------------------------------------------|
B|-12----7----7----12----------------------------------|
G|-12----7----7----12----------------------------------|
D|-12----7----7----12----------------------------------|
A|------------7----------------------------------------|
E|-----------------------------------------------------|

(Guitarra Base - 4x)
E|-----------------------------------------------------|
B|-----------------------------------------------------|
G|-----------------------------------------------------|
D|-----------------------------------------------------|
A|-2-2-2-5--5-4-0-2-2--2-5-5-4-4-----------------------|
E|-0-0-0----------0-0--0-------------------------------|


[Solo]

Parte 1 de 4
E|-------12-12-12-------12-12-12-------12-12-----------|
B|-15b17----------15b17----------15b17-------15b17-----|
G|-----------------------------------------------------|
D|-----------------------------------------------------|
A|-----------------------------------------------------|
E|-----------------------------------------------------|

E|-------12-12-12-------12-12-12-------12-12-----------|
B|-15b17----------15b17----------15b17-------15b17-----|
G|-----------------------------------------------------|
D|-----------------------------------------------------|
A|-----------------------------------------------------|
E|-----------------------------------------------------|

E|-------12-12-12-------12-12-12-------12-12-----------|
B|-15b17----------15b17----------15b17-------15b17-----|
G|-----------------------------------------------------|
D|-----------------------------------------------------|
A|-----------------------------------------------------|
E|-----------------------------------------------------|

E|-------12-12-12-------12-12-12-----------------------|
B|-15b17-----------------------------------------------|
G|----------------14b16----------14b16r14--12~---------|
D|-----------------------------------------------------|
A|-----------------------------------------------------|
E|-----------------------------------------------------|

Parte 2 de 4
E|-----------------------------------------------------|
B|--------------3-5\-----------------------------------|
G|-2b--4~---2-4------2~p0h2p0--------------------------|
D|-----------------------------------------------------|
A|-----------------------------------------------------|
E|-----------------------------------------------------|

Parte 3 de 4
E|---------3-5------5p3p0----5p3p0---------------------|
B|-----3-5-----3----------3--------3~------------------|
G|-2h4-------------------------------------------------|
D|-----------------------------------------------------|
A|-----------------------------------------------------|
E|-----------------------------------------------------|

Parte 4 de 4
                     \/\/\/
E|-----------------------------------------------------|
B|---3-5-----------------------------------------------|
G|-4------2br~~p0h2p0----------------------------------|
D|-----------------------------------------------------|
A|-----------------------------------------------------|
E|-----------------------------------------------------|


(Guitarra Riff - 4x)
E|-----------------------------------------------------|
B|-----------------------------------------------------|
G|-9--x-12~--12~-x--9--x-12--12-12---------------------|
D|-9--x-12~--12~-x--9--x-12--12-12---------------------|
A|-----------------------------------------------------|
E|-----------------------------------------------------|


(Guitarra Base - 8x)
E|-----------------------------------------------------|
B|-----------------------------------------------------|
G|-----------------------------------------------------|
D|-----------------------------------------------------|
A|-2-2-2-5--5-4-0-2-2--2-5-5-4-4-----------------------|
E|-0-0-0----------0-0--0-------------------------------|


[Refrão]

(Guitarra Riff - 8x)
E|-----------------------------------------------------|
B|-----------------------------------------------------|
G|-9--x-12~--12~-x--9--x-12--12-12---------------------|
D|-9--x-12~--12~-x--9--x-12--12-12---------------------|
A|-----------------------------------------------------|
E|-----------------------------------------------------|


(Guitarra Base - 8x)
E|-----------------------------------------------------|
B|-----------------------------------------------------|
G|-----------------------------------------------------|
D|-----------------------------------------------------|
A|-2-2-2-5--5-4-0-2-2--2-5-5-4-4-----------------------|
E|-0-0-0----------0-0--0-------------------------------|

Inútil
A gente somos inútil
Inútil
A gente somos inútil
Inútil
A gente somos inútil
Inútil
A gente somos inútil


[Terceira Parte]

(Guitarra Base - 3x)
E|-----------------------------------------------------|
B|-----------------------------------------------------|
G|-----------------------------------------------------|
D|-----------------------------------------------------|
A|-2-2-2-5--5-4-0-2-2--2-5-5-4-4-----------------------|
E|-0-0-0----------0-0--0-------------------------------|

A gente faz música
E não consegue gravar
A gente escreve livro
E não consegue publicar
A gente escreve peça
E não consegue encenar
A gente joga bola
E não consegue ganhar


[Refrão Final]

(Guitarra Base - 4x)
E|-----------------------------------------------------|
B|-----------------------------------------------------|
G|-----------------------------------------------------|
D|-----------------------------------------------------|
A|-2-2-2-5--5-4-0-2-2--2-5-5-4-4-----------------------|
E|-0-0-0----------0-0--0-------------------------------|

Inútil
A gente somos inútil
Inútil
A gente somos inútil

(Guitarra Riff - 4x)

E|-----------------------------------------------------|
B|-----------------------------------------------------|
G|-9--x-12~--12~-x--9--x-12--12-12---------------------|
D|-9--x-12~--12~-x--9--x-12--12-12---------------------|
A|-----------------------------------------------------|
E|-----------------------------------------------------|


(Guitarra Base - 4x)
E|-----------------------------------------------------|
B|-----------------------------------------------------|
G|-----------------------------------------------------|
D|-----------------------------------------------------|
A|-2-2-2-5--5-4-0-2-2--2-5-5-4-4-----------------------|
E|-0-0-0----------0-0--0-------------------------------|

Inútil
A gente somos inútil
Inútil
A gente somos inútil

(Guitarra Riff - 4x)

E|-----------------------------------------------------|
B|-----------------------------------------------------|
G|-9--x-12~--12~-x--9--x-x-7~--7-7-7-------------------|
D|-9--x-12~--12~-x--9--x-x-7~--7-7-7-------------------|
A|-7--x-10~--10~-x--7--x-x-5~--5-5-5-------------------|
E|-----------------------------------------------------|


(Guitarra Base - 4x)
E|-----------------------------------------------------|
B|-----------------------------------------------------|
G|-----------------------------------------------------|
D|-----------------------------------------------------|
A|-2-2-2-5--5-4-0-2-2--2-5-5-4-4-----------------------|
E|-0-0-0----------0-0--0-------------------------------|

Inútil
Inútil
Inútil
Inútil
Acordes para:

    0 comentários

      mostrar mais comentários

      Conseguiu tocar?

      92tocaram1ainda não

      Grave um vídeo tocando Inútil e mande pra gente!

      00:00 / 00:00
      outros vídeos desta música
      repetirqualidadeAutomático
      Outro vídeos desta música
        00:00 / 00:00
        Capítulos
        • Início
        • Acordes da música
        • Tocando a primeira parte
        • Ritmo
        • Ensinando ritmo
        • Tocando refrão
        • Ritmo do refrão
        • Tocando refrão com o primeiro ritmo
        • Encerramento
        OK