Cifra Club

Tudo Que Sonhamos

Um44k

Cifra: Pocket (violão e guitarra)
Tom: G
[Intro] C#m7  B9  A9
        C#m7  B9  A9

[Solo]

Parte 1 (3x)

E|----------------------------------------------------|
B|---10/12\10-9-9-------------------------------------|
G|-9--------------h11---------------------------------|
D|----------------------------------------------------|
A|----------------------------------------------------|
E|----------------------------------------------------|

Parte 2

E|----------------------------------------------------|
B|----------------------------------------------------|
G|-11-9-11/13-11--------------------------------------|
D|----------------------------------------------------|
A|----------------------------------------------------|
E|----------------------------------------------------|

[Dedilhado Intro e Primeira Parte]

   C#m7      B9        A9                       
E|---------x---------x---------x--0-0-0--0-0-0-0------|
B|-------5-x-------2-x-------0-x--0-0-0--0-0-0-0------|
G|-----4---x-----4---x-----2---x--2-2-2--2-2-2-2------|
D|---6-----x---4-----x---2-----x--2-2-2--2-2-2-2------|
A|-4-------x-2-------x-0-------x--0-0-0--0-0-0-0------|
E|---------x---------x---------x----------------------|
                                  ↓ ↑ ↓  ↓ ↑ ↓ ↑


[Primeira Parte]

C#m7                B9               A9
     E tudo que sonhamos se realizou
                                  C#m7
Dentro de você a prova do nosso amor
                   B9
E em meio a tanta guerra 
                 A9
A gente protegeu

Sabia desde o inicio

Que era presente de Deus

[Segunda Parte]

C#m7    B9   A9
     Você mudou

Aquilo que eu era e me transformou
C#m7      B9         A9
     Num ser melhor,    melhor

 C#m7                 B9
Sabe todo o meu passado 

E tudo que eu fiz
   A9
E mesmo sendo todo errado

Não desacreditou de mim

 C#m7                 B9
Sabe todo o meu passado 

E tudo que eu fiz
   A9
E mesmo sendo todo errado

Não desacreditou de mim

[Terceira Parte]

  C#m7  B9
Chegou  a herança de um grande amor
A9
   Ganhei a força e a coragem 

De um lutador
C#m7               B9
     Aquele sonho de menino
            A9
Hoje aconteceu

  C#m7  B9
Chegou  a herança de um grande amor
A9
   Ganhei a força e a coragem 

De um lutador
C#m7               B9
     Aquele sonho de menino
            A9
Hoje aconteceu

[Primeira Parte]

C#m7                B9               A9
     E tudo que sonhamos se realizou
                                  C#m7
Dentro de você a prova do nosso amor
                   B9
E em meio a tanta guerra 
                 A9
A gente protegeu

Sabia desde o inicio

Que era presente de Deus

[Segunda Parte]

C#m7    B9   A9
     Você mudou

Aquilo que eu era e me transformou
C#m7      B9         A9
     Num ser melhor,    melhor

[Final] C#m7  B9  A9
        C#m7  B9  A9  C#m7
exibições 5.575
Acordes para:
    Composição: André Nine / Luan Otten / Raphinha / Saulo Poncio Colaboração e revisão:
    • Leandro Sandim

    0 comentários

    mostrar mais comentários

    Conseguiu tocar?

    5 tocaram 1 ainda não

    Grave um vídeo tocando Tudo Que Sonhamos e mande pra gente!

    00:00 / 00:00
    outros vídeos desta música
    repetir qualidade Automático
    Outros vídeos desta música
    00:00 / 00:00
    Automático
    Capítulos
    • Abertura
    • Apresentação / Equipamentos
    • Acordes
    • Ensinando Ritmo
    • Tocando Trecho da Música
    • Tocando Solo
    • Encerramento
    OK