Cifra Club

Train

Undrop

Cifra: Principal (violão e guitarra)
tom: D
intro solo

||--------------------------------------------------------------------------
||----------------------------------------------------0^3-------------------
||----0----------------------0^2-0-----------------0^2----------------------
||---0--------------------0^2-----0-------------0^2----------0--0--2--------
||-----------0^2-3-(3)----------------0-2-3-----------------2--0--2---------
||-3--------------------------------3----------------------3--2--0----------



E|----------------------3-3---------| |
B|----------------------3-3---------| |
G|----------------------0-0---------| |
D|----0^2-0-------------0-0---------| |
A|-0^2-----0---0--2--0--2-2---------| |
E|-----------3----------3-3---------| |
00:00 / 00:00
Outros vídeos desta música
Repetir
Outros vídeos desta música
Compositor não encontrado.
15 exibições
    • ½ Tom
    • A
    • Bb
    • B
    • C
    • Db
    • D
    • Eb
    • E
    • F
    • F#
    • G
    • Ab
  • Adicionar à lista

    0 comentários

    Ver todos os comentários

    Conseguiu tocar?

    0 Tocaram 0 Ainda não

    Grave um vídeo tocando Train e nos envie!

    Entre para oCifra Club PRO

    Tenha acesso a benefícios exclusivos no App e no Site

    • Chega de anúncios

    • Prioridade de compra em lançamentos

    • Mais recursos no app do Afinador

    • Atendimento Prioritário

    • Descontos nos produtos Cifra Club

    • Ajude a produzir mais conteúdo

    00:00 / 00:00

    Cifra Club Pro

    Aproveite o Cifra Club com benefícios exclusivos e sem anúncios
    Cifra Club Pro
    Aproveite o Cifra Club com benefícios exclusivos e sem anúncios
    OK