Cifra Club

Around Again

Union

Cifra: Principal (violão e guitarra)
Tom: G
Drop-D tuning down 1/2-step


Riff.1  intro + 1st & 2 verse riff
------------------------------------------------
------------------------------------------------
------------------------------------------------
------------------------------------------------
------------------------------------------------
10-12-12--10-12-12--10-12-12--10-12-10--10h12~--


intro fill
------------------------
--6---------6-----------    
--4----3----4---3-------
-------3--------3-------
-------------------0----
-------------------0----


riff.2 pre-chorus (as a child is born e.t.c..) 
---------------------3------2----------------
-----3------2--------6------3------3-----2---
-----3------2--------5------2------3-----2---
--3-------2-----------------0----3-----2-----
1-------0---------3-------0----1-----0-------
----------------3-------0--------------------   

-----6--------------
-----9--------------
-----8--------------
-------------------
---6----------------
-6------8-7-5-3-5-3-



chorus 
    
D   Cadd9   B\G  Bb5 
    
2---3-------0------------
3---3-------3------------
2---0-------0----3--------
0---2-------0----3--------
----3-------2----1-------
----------------------


interlude              pm---               pm---
---------------------------------------------------------
-------------------------------12-13-12---------10-11-10-
-5-7-----------------------------------------------------
------5-7--3-5-------------------------------------------
---------------3-5--0------------------------------------
--------------------0--3-3-3--------------1-1-1----------
        
                 pm---           pm---
----------------------------------------------------------------
----------------------------------------------10-11-10----------
-5-7--------------------------12-13-12--------------------------
------5-7--3-5--------------------------------------------------
---------------3-5-0------------------------------------3-4-5-0-
-------------------0--3-3-3--------------1-1-1----------3-4-5-0-
exibições 382
Acordes para:
    Composição: Bruce Kulick / John Corabi Colaboração e revisão:
    • peterson gusmão

    0 comentários

    mostrar mais comentários

    Conseguiu tocar?

    0 tocaram 0 ainda não

    Grave um vídeo tocando Around Again e mande pra gente!

    00:00 / 00:00
    outros vídeos desta música
    repetir qualidade Automático
    Outros vídeos desta música
    00:00 / 00:00
    Automático
    OK