Cifra Club

Empty Soul

Union

Cifra: Principal (violão e guitarra)
Tom: C
Asus4   Em  Cadd9   G   F#/G   F/G    F    Am

--0--|--0--|--0--|--3--|--3--|--3--|--1--|--0--|
--0--|--0--|--3--|--3--|--3--|--3--|--1--|--1--|
--0--|--0--|--0--|--0--|--0--|--0--|--2--|--2--|
--2--|--2--|--2--|--0--|--0--|--0--|--3--|--2--|
--0--|--2--|--3--|--2--|--0--|--0--|--3--|--0--|
-----|--0--|-----|--3--|--2--|--1--|--1--|-----|
 

1st + 2nd verses


Guitar 1    Asus4       Asus4     Em        Em   (repeat as required)   
          |--------------------------------------------||
          |--------------------------------------------||
          |--------------------------------------------||
          |----4-4-2------4-4-2------4-4-2-------------||
Guitar 2|-0-----------0--------------------5-4-5-7---|| 
          |-----------------------0--------------------||


pre chorus:  Cadd9, G, F, Cadd9, Cadd9, G, F, Cadd9       
          

1st Chorus: G, F#/G, F/G, Am, G, F#/G, F/G, Am, G, F, Em 


2nd + 3rd Chorus: G, F#/G, F/G, Am, G, F#/G, F/G, Am, G, F, Em, G, F, Em
exibições 306
Acordes para:
    Composição: Bruce Kulick / Curt Coumo / Donald Kirkpatrick / John Corabi Colaboração e revisão:
    • peterson gusmão

    0 comentários

    mostrar mais comentários

    Conseguiu tocar?

    0 tocaram 0 ainda não

    Grave um vídeo tocando Empty Soul e mande pra gente!

    00:00 / 00:00
    outros vídeos desta música
    repetir qualidade Automático
    Outros vídeos desta música
    00:00 / 00:00
    Automático
    OK