Cifra Club

Aprenda

Carnaval

Valentin

Cifra: Principal (violão e guitarra)
tom: Db (forma dos acordes no tom de Bb) Capotraste na 3ª casa
[Dedilhado]

    C
E|-------------------------------------------|
B|-----------0--------------------0----------|
G|--------8-----8--------------8-----8-------|
D|-----8--------------8-----8--------------8-|
A|--0--------------0-----0--------------0----|
E|-------------------------------------------|
    Eb
E|-------------------------------------------|
B|-----------8--------------------6----------|
G|--------0-----0--------------0-----0-------|
D|-----7--------------7-----7--------------7-|
A|--6--------------6-----6--------------6----|
E|-------------------------------------------|
    Bb
E|-------------------------------------------|
B|-----------0--------------------0----------|
G|--------5-----5--------------5-----5-------|
D|-----0--------------0-----0--------------0-|
A|-------------------------------------------|
E|--6--------------6-----6--------------6----|

E|---------------------------------------------|
B|-----------0--------------------6p0----------|
G|--------5-----5--------------5-------5-------|
D|-----0--------------0-----0----------------0-|
A|---------------------------------------------|
E|--6--------------6-----6----------------6----|

[Dedilhado]

C                   Eb
    Tropeço no infinito

       Bb
E abandono a cada passo o peso das escolhas que eu já fiz

C          Eb           Bb
    Pra abraçar as que ainda vão vir

C             Eb   Bb
    Não quer dizer    que eu já não chore as minhas dores

Que não hesite diante dos temores

[Acordes]

    Em       G       Am7
E|--0--------0--------0--|
B|--0--------4--------4--|
G|--0--------0--------0--|
D|--5--------5--------5--|
A|--5--------6--------0--|
E|--0--------6-----------|

Em           G           Am7
Sou o que o tempo fez e faz de mim

    Bb
E|---------------------------------------------|
B|-----------0--------------------6p0----------|
G|--------5-----5--------------5-------5-------|
D|-----0--------------0-----0----------------0-| (x2)
A|---------------------------------------------|
E|--6--------------6-----6----------------6----|

[Dedilhado]

C                     Eb                       Bb
    Carrego a casca grossa que o mundo me ensinou a carregar

                C                     Eb
O semblante fechado na multidão não é outra coisa senão

        Bb
Uma couraça que enquanto tenta defender o ego

[Acordes]

    Em       G       Am7
E|--0--------0--------0--|
B|--0--------4--------4--|
G|--0--------0--------0--|
D|--5--------5--------5--|
A|--5--------6--------0--|
E|--0--------6-----------|

Em            G              Am7
Não deixa a brisa no fim da tarde ser bonita

    Bb
E|---------------------------------------------|
B|-----------0--------------------6p0----------|
G|--------5-----5--------------5-------5-------|
D|-----0--------------0-----0----------------0-| (x2)
A|---------------------------------------------|
E|--6--------------6-----6----------------6----|

[Acordes]

    Em       G       Am7 (variação)
E|--0--------0--------0--0--0--|
B|--0--------4--------4--6--8--|
G|--0--------0--------0--0--0--|
D|--5--------5--------5--7--8--|
A|--5--------6--------0--0--0--|
E|--0--------6-----------------|

           Em        G    Am7 (variação)
Apesar de todo cansaço a vida ainda é... bonita

    Bb
E|---------------------------------------------|
B|-----------0--------------------6p0----------|
G|--------5-----5--------------5-------5-------|
D|-----0--------------0-----0----------------0-|
A|---------------------------------------------|
E|--6--------------6-----6----------------6----|

    A
E|--------------------------------------------|
B|-----------0--------------------0-----------|
G|--------5-----5--------------5-----5--------|
D|-----4--------------4-----4--------------4--|
A|--------------------------------------------|
E|--5--------------5-----5--------------5-----|

    G
E|--------------------------------------------|
B|-----------0--------------------0-----------|
G|--------0-----0--------------0-----0--------|
D|-----5--------------5-----5--------------5--|
A|--------------------------------------------|
E|--0--------------0-----0--------------0-----|

    C
E|--------------------------------------------|
B|-----------4--------------------4-----------|
G|--------0-----0--------------0-----0--------|
D|-----5--------------5-----5--------------5--|
A|--0--------------0-----0--------------0-----|
E|--------------------------------------------|

[Volta o dedilhado inicial a partir do D#]

    Eb
E|-------------------------------------------|
B|-----------8--------------------6----------|
G|--------0-----0--------------0-----0-------|
D|-----7--------------7-----7--------------7-|
A|--6--------------6-----6--------------6----|
E|-------------------------------------------|
    Bb
E|-------------------------------------------|
B|-----------0--------------------0----------|
G|--------5-----5--------------5-----5-------|
D|-----0--------------0-----0--------------0-|
A|-------------------------------------------|
E|--6--------------6-----6--------------6----|

E|---------------------------------------------|
B|-----------0--------------------5h0----------|
G|--------5-----5--------------5-------5-------|
D|-----0--------------0-----0----------------0-|
A|---------------------------------------------|
E|--6--------------6-----6----------------6----|
Composição de Erico Junqueira
Colaboração e revisão:
  • Willian Alves
  • Vinícius Dornelles
572 exibições
    • ½ Tom
    • A
    • Bb
    • B
    • C
    • Db
    • D
    • Eb
    • E
    • F
    • F#
    • G
    • Ab
  • Adicionar à lista

    0 comentários

    Ver todos os comentários

    Conseguiu tocar?

    0 Tocaram 0 Ainda não

    Grave um vídeo tocando Carnaval e nos envie!

    00:00 / 00:00
    Outros vídeos desta música
    Repetir Qualidade Automático
    Outros vídeos desta música
    00:00 / 00:00
    Automático

    Cifra Club Pro

    Aproveite o Cifra Club com benefícios exclusivos e sem anúncios
    Cifra Club Pro
    Aproveite o Cifra Club com benefícios exclusivos e sem anúncios
    OK