Cifra Club

Dance the night away

Van Halen

Cifra: Principal (violão e guitarra)
Tom: A
Afine a guitarra 1/2 tom abaixo
Riff tocado quase toda hora
-----------------------------------------------------------
----9-----9-10--9--7-7__5-5----9-----9-10--5---5_7---------
----9-----9--9--9--8-8__6-6----9-----9--9--6-6--_8---------
----9--9--9--9--9--9-9__7-7----9--9--9--9--7----_9---------
-7---------------------------------------------------------
-----------------------------------------------------------

Have you seen her?
So fine and pretty.  Fooled me with her style and ease.
And I feel her from across the room.
Yes, it's love in the third degree.

    Ooh, baby, baby.
 C#m C#m  E     A
--4---4------------------------
--5---5---9-----5--------------
--6---6---9-----6--------------
--6---6---9-----7--------------
--4---4---7-----7--------------
----------------5--------------

Won'tcha turn your head my way?
         F#
--------------------------------0-------
---------2------------------------4-----
---------3--------------------------4---
---------4----------------------------2-
---------4------------------------------
---------2------------------------------

Ooh, baby, baby.
Come on, take a chance.
You're old enough to dance the night away.
Oh, come on, baby, dance the night away.

A live wire.
Barely a beginner, but just watch that lady go.
She's on fire, 'cause dancing gets her higher than
anything else she knows.

Ooh, baby, baby.
Won'tcha turn your head my way?
Ooh, baby, baby.
Well, don't skip romance, 'cause you're old enough to dance
the night away.
Oh, come on, baby, dance the night away.

[solo]


Dance the night away.
Dance, dance, dance the night away.
(repetir)
exibições 14.142
Acordes para:

    0 comentários

    mostrar mais comentários

    Conseguiu tocar?

    1 tocaram 0 ainda não

    Grave um vídeo tocando Dance the night away e mande pra gente!

    00:00 / 00:00
    outros vídeos desta música
    repetir qualidade Automático
    Outros vídeos desta música
    00:00 / 00:00
    Automático
    OK