Cifra Club

Jump

Van Halen

Cifra: Guitarra (violão e guitarra)
tom: C
[Intro]


[Primeira Parte]

I get up
And nothin' gets me down
You got it tough
I've seen the toughest around
And I know, baby
Just how you feel
You got to roll with the punches 
And get to what's real


[Pré-Refrão]

    \ /   \ /   \ /
E|-0----------------------------------------|
B|------------------------------------------|
G|------------------------------------------|
D|------------------------------------------|
A|------------------------------------------|
E|------------------------------------------|

  P.M.   . . .  
E|------------------------------------------|
B|------------------------------------------|
G|-----5-------5-7/9--7~--------------------|
D|---7-------5------------------------------|
A|-8-----8-7--------------------------------|
E|------------------------------------------|

  P.M.   . . .  
E|------------------------------------------|
B|------------------------------------------|
G|-----5-------5-7/9--7~--------------------|
D|---7-------5------------------------------|
A|-8-----8-7--------------------------------|
E|------------------------------------------|

  P.M.   . . .  
E|------------------------------------------|
B|---------------8/10--8~~------------------|
G|-----5-------5----------------------------|
D|---7-------5------------------------------|
A|-8-----8-7--------------------------------|
E|------------------------------------------|

Can't you see me standin' here?
I got my back against the record machine
I ain't the worst that you've seen
Can't you see what I mean?


[Refrão]

  P.M. . . . . . . . . . . . . . .
E|------------------------------------------|
B|------------------------------------------|
G|------------------------------------------|
D|------------------------------------------|
A|-3-3-3-3-3-3-3-3-3-3-3-3-3-3-3-3----------|
E|------------------------------------------|

  P.M. . . . . . . . 
E|------------------------------------------|
B|------------------------------------------|
G|------------------------------------------|
D|-------------------3-----5----------------|
A|-3-3-3-3-3-3-3-3-3-3-----5----------------|
E|-------------------1-----3----------------|

  P.M. . . . . . . . . . . . . . .
E|------------------------------------------|
B|------------------------------------------|
G|------------------------------------------|
D|------------------------------------------|
A|-3-3-3-3-3-3-3-3-3-3-3-3-3-3-3-3----------|
E|------------------------------------------|

  P.M. . . . . . . . 
E|------------------------------------------|
B|------------------------------------------|
G|------------------------------------------|
D|-------------------3-----5----------------|
A|-3-3-3-3-3-3-3-3-3-3-----5----------------|
E|-------------------1-----3----------------|

Might as well jump (Jump)
Might as well jump
Go ahead and jump (Jump)
Go ahead and jump


[Segunda Parte]

You, who said that?
Baby, how you've been?
You say you don't know
You won't know until you begin


[Pré-Refrão]

Can't you see me standing here?
I got my back against the record machine
I ain't the worst that you've seen
Can't you see what I mean?


[Refrão]

Might as well jump (Jump)
Go ahead and jump
Might as well jump (Jump)
Go ahead and jump


[Solo De Guitarra]

E|-18~\-------------------------------------|
B|------------------------------------------|
G|------------------------------------------|
D|------------------------------------------|
A|------------------------------------------|
E|------------------------------------------|

E|-----6----------6---------6---------------|
B|---x---9b11~------6-9p6---------------6---|
G|-x----------------------9---8h9p8p6-8---6-|
D|------------------------------------------|
A|------------------------------------------|
E|------------------------------------------|

E|------------------------------------------|
B|------------------------------------------|
G|-7b--6b--7b--6b---------------------------|
D|------------------------------------------|
A|------------------------------------------|
E|------------------------------------------|

E|------------------------------------------|
B|------------------------------------------|
G|------------------------------------------|
D|-8---6b----8p6---6------------------------|
A|---8-----------8---8-7-6-4-6b7r6p4~-------|
E|------------------------------------------|

E|-6h9-13p9p8p6h9-13p9p8p6h9-13p9p8p6-------|
B|------------------------------------h9----|
G|------------------------------------------|
D|------------------------------------------|
A|------------------------------------------|
E|------------------------------------------|

E|------------------------------------------|
B|-13p6-------------------------------------|
G|------h9-13p6h10--------------------------|
D|-----------------13p6h10------------------|
A|-------------------------13p6h8p6b8r6~----|
E|------------------------------------------|

E|------------------------------------------|
B|------------------------------------------|
G|-8b10r8p6-8~------------------------------|
D|------------------------------------------|
A|------------------------------------------|
E|------------------------------------------|

E|-------6-8-11-11/13p9-11~\----------------|
B|-----6------------------------------------|
G|---6--------------------------------------|
D|-8----------------------------------------|
A|------------------------------------------|
E|------------------------------------------|

E|------------------------------------------|
B|------------------------------------------|
G|------------------------------------------|
D|----------15h16h18----------15h16h18------|
A|-15h16h18----------15h16h18---------------|
E|------------------------------------------|

E|-------------------15h16p15---------------|
B|----------15h16h18------------------------|
G|-15h17h18---------------------------------|
D|------------------------------------------|
A|------------------------------------------|
E|------------------------------------------|


[Solo de Teclado] C5  F5  G5  Bb5  A5  Ab5  G5  C5


[Refrão]

Might as well jump (Jump)
Go ahead and jump
Might as well jump (Jump)
Go ahead and jump


[Final]

  P.M. . . . . . . . .
E|------------------------------------------|
B|------------------------------------------|
G|-----5-5-4-4-5-2-2-2----------------------|
D|------------------------------------------|
A|-3-3--------------------------------------|
E|------------------------------------------|

  P.M. . . . . . .
E|------------------------------------------|
B|------------------------------------------|
G|-5-5-4-4-5-0-0-0--------------------------|
D|------------------------------------------|
A|------------------------------------------|
E|------------------------------------------|

  P.M. . . . 
E|-----------3---3-3------------------------|
B|-----------5---3-3------------------------|
G|-5-5-5-5-5-5---5-5------------------------|
D|------------------------------------------|
A|------------------------------------------|
E|------------------------------------------|
Composição de Alex Van Halen / David Lee Roth / Eddie Van Halen / Michael Anthony
Colaboração e revisão:
  • Vinícius Dias
3.585 exibições
    • ½ Tom
    • A
    • Bb
    • B
    • C
    • Db
    • D
    • Eb
    • E
    • F
    • F#
    • G
    • Ab
  • Adicionar à lista

    0 comentários

    Ver todos os comentários
    00:00 / 00:00
    Outros vídeos desta música
    Repetir Qualidade Automático
    Outros vídeos desta música
    00:00 / 00:00
    Automático
    Capítulos
    • Tocando a Música
    • Apresentação / Equipamentos
    • Ensinando o Solo
    • Encerramento

    Cifra Club Pro

    Aproveite o Cifra Club com benefícios exclusivos e sem anúncios
    Cifra Club Pro
    Aproveite o Cifra Club com benefícios exclusivos e sem anúncios
    OK