Cifra Club

Aprenda

Right Now

Van Halen

Cifra: Aula-solo (violão e guitarra)
tom: C
[Solo]

E|-----------------10-----------10----------|
B|-13b15----b15~------10-13b15--------------|
G|------------------------------------------|
D|------------------------------------------|
A|------------------------------------------|
E|------------------------------------------|

E|-------10---------------------------------|
B|-13b15----10-13---------------------------|
G|----------------12b14r12p10--12-12~\------|
D|------------------------------------------|
A|------------------------------------------|
E|------------------------------------------|

E|------------------------------------------|
B|------------------------------------------|
G|------------------------------------------|
D|-------10---------------------------------|
A|-10/12-----12\10-8-10---------------------|
E|----------------------10-8~---------------|

E|---------------------20-------------------|
B|-----17-20b22r21b22-----b22r20p17-20b22~--|
G|---x--------------------------------------|
D|-x----------------------------------------|
A|------------------------------------------|
E|------------------------------------------|

E|--------10-10-------10-10-------10-10-----|
B|--------10-10-------10-10-------10-10-----|
G|-12b14--------12b14-------12b14-----------|
D|------------------------------------------|
A|------------------------------------------|
E|------------------------------------------|

E|-------10-10-------10-10------------------|
B|-------10-10-------10-10------------------|
G|-12b14-------12b14------------------------|
D|------------------------------------------|
A|------------------------------------------|
E|------------------------------------------|

E|--------13-13-------13-13-----------------|
B|--------13-13-------13-13-----------------|
G|-14b16--------14b16-------14--------------|
D|------------------------------------------|
A|------------------------------------------|
E|------------------------------------------|

E|--------15-15-------15-15-----------------|
B|--------15-15-------15-15-----------------|
G|-16b18--------16b18-------16--------------|
D|------------------------------------------|
A|------------------------------------------|
E|------------------------------------------|

E|------------------------------------------|
B|------------------------------------------|
G|-12b13r12p10-------12b13r12p10------------|
D|-------------12-10-------------12-10------|
A|------------------------------------------|
E|------------------------------------------|

E|------------------------------------------|
B|------------------------------------------|
G|------------------------------------------|
D|------------------------------------------|
A|-10b11r10p8------10b11r10p8----8-10/12----|
E|------------10-8------------10------------|

E|-------------------10h13b15r13p10--13~----|
B|-------------10h13------------------------|
G|-------10h12------------------------------|
D|-10h12------------------------------------|
A|------------------------------------------|
E|------------------------------------------|

E|------------------------------------------|
B|-10-13------------------------------------|
G|-------12b14r12p10-12~--------------------|
D|------------------------------------------|
A|------------------------------------------|
E|------------------------------------------|

E|-13-15-15b17r15p13-15b-b17-b17-b17~~------|
B|------------------------------------------|
G|------------------------------------------|
D|------------------------------------------|
A|------------------------------------------|
E|------------------------------------------|
Composição de Alex Van Halen / Eddie Van Halen / Michael Anthony / Sammy Hagar
Colaboração e revisão:
  • Vinícius Dias
  • Alvaro Ferreira
2.916 exibições
    • ½ Tom
    • A
    • Bb
    • B
    • C
    • Db
    • D
    • Eb
    • E
    • F
    • F#
    • G
    • Ab
  • Adicionar à lista

    0 comentários

    Ver todos os comentários

    Conseguiu tocar?

    1 Tocaram 0 Ainda não

    Grave um vídeo tocando Right Now e nos envie!

    00:00 / 00:00
    Outros vídeos desta música
    Repetir Qualidade Automático
    Outros vídeos desta música
    00:00 / 00:00
    Automático
    Capítulos
    • Apresentação
    • Tocando o Solo
    • Equipamentos
    • Tocando o Solo Lento
    • Encerramento

    Cifra Club Pro

    Aproveite o Cifra Club com benefícios exclusivos e sem anúncios
    Cifra Club Pro
    Aproveite o Cifra Club com benefícios exclusivos e sem anúncios
    OK