Cifra Club

Domino

Van Morrison

Cifra: Principal (violão e guitarra)
Selo Cifra Club: esta cifra foi revisada para atender aos critérios oficiais da nossa Equipe de Qualidade.
tom: Eb
E|---------------|-----------|---------------|----------|
B|---------------|--------3--|---------------|----------|
G|------------3--|-3---3-----|------------3--|-3---3----|
D|--------3-5----|----5------|--------3-5----|----5-----|
A|---3--5--------|-----------|---3--5--------|----------|
E|-6-------------|-----------|-6-------------|----------|

E|-------------------------------------------------------------------|

|----------------|
|----------------|
|----------------|
|------------5-8-|
|-----5-6--6-----|
|-6-6------------| 
E|-------------------------------------------------------------------|

E|------------------|-----------------------|-------------|-----------|
B|------------------|-----------------------|-------------|-----------|
G|------------------|-----------------------|-------------|-----------|
D|------------------|-----------------------|-----------7s| 8----------|
A|--3-3-5-5-6-6-7-7-|-8-8-10-10-11-11-12-12-|-13---5s6----|----5s6----|
E|------------------|-----------------------|-------------|---------6-|
 
Outros vídeos desta música
    16 exibições
      • ½ Tom
      • A
      • Bb
      • B
      • C
      • Db
      • D
      • Eb
      • E
      • F
      • F#
      • G
      • Ab
    • Adicionar à lista

    Afinação da cifra

    Afinador online

      0 comentários

      Ver todos os comentários

      Entre para o Cifra Club PRO

      Tenha acesso a benefícios exclusivos no App e no Site

      • Chega de anúncios

      • Badges exclusivas

      • Mais recursos no app do Afinador

      • Atendimento Prioritário

      • Aumente seu limite de lista

      • Ajude a produzir mais conteúdo

      Cifra Club Pro

      Aproveite o Cifra Club com benefícios exclusivos e sem anúncios
      Cifra Club Pro
      Aproveite o Cifra Club com benefícios exclusivos e sem anúncios
      Ops (: Contenido disponible sólo en portugués.
      OK