Cifra Club

Românticos

Vander Lee

Cifra: Principal
exibições 273.998
Tom: G
(intro 2x) G C C4  C



   G            G7M
Românticos são poucos
   G            G7M          C
Românticos são loucos desvairados
      Am         Am7M
Que querem ser o outro
     Am7         Am6           D7  D7(4)  D7
Que pensam que o outro é o paraíso

   G            G7M
Românticos são limpos
   G            G7M        C
Românticos são lindos e pirados
      Am          Am7M
Que choram com baladas
    Am7          Am6          D7  D#º
Que amam sem vergonha e sem juízo

     Em          Em9/D#
São tipos populares
     Em/D        A7/C#
Que vivem pelos bares
   Dm7          G7           C G4/B
E mesmo certos vão pedir perdão

   Am                 Am7M
E passam a noite em claro
    Am7           Am6
Conhecem o gosto raro
     C              D11          G  G7M
De amar sem medo de outra desilusão
   C               D11           G  G7M
Romântico é uma espécie em extinção
   C               D11           G   C/D (1ª vez)
Romântico é uma espécie em extinção

   G            G7M
Românticos são poucos
   G            G7M
Românticos são loucos
     C   C4
Como eu

   G            G7M
Românticos são poucos
   G            G7M
Românticos são loucos
     C   C4
Como eu
     G
Como eu

( G4/B )

(dedilhados)

(padrão)

      G
E|---------3---------------3----------------|
B|-----0-------0-------0-------0------------|
G|---0---0---0---0---0---0---0---0----------|
D|------------------------------------------|
A|------------------------------------------|
E|-3---------------3------------------------|


      C               C4      C
E|---------0--------------------------------|
B|-----1-------1-------1-------1------------|
G|---0---0---0---0---0---0---0---0----------|
D|-----------------3-------2----------------|
A|-3----------------------------------------|
E|------------------------------------------|


(1ª parte)

      G               G7M
E|---------3---------------2----------------|
B|-----3-------3-------3-------3------------|
G|---0---0---0---0---4---4---4---4----------|
D|------------------------------------------|
A|------------------------------------------|
E|-3---------------3------------------------|  (2x)


      C                       G/B
E|---------0---------------------3----------|
B|-----1---------1-----1-------3------------|
G|---0---0-----0-----0---0---0--------------|
D|-----------2------------------------------|
A|-3---------------3-------2----------------|
E|------------------------------------------|


      Am              Am7M
E|---------0---------------0----------------|
B|-----1-------1-------1-------1------------|
G|---2---2---2---2---1---1---1---1----------|
D|------------------------------------------|
A|-0---------------0------------------------|
E|------------------------------------------|


      Am7             Am6
E|---------0--------------------------------|
B|-----1-------1-----------5----------------|
G|---0---0---0---0-----5-------5------------|
D|-------------------4---4---4---4----------|
A|-0----------------------------------------|
E|-----------------5------------------------|


(1ª vez)

      D7
E|---------2---------------2----------------|
B|-----1-------1-------1-------1------------|
G|---2---2---2---2---2---2---2---2----------|
D|-0---------------0------------------------|
A|------------------------------------------|
E|------------------------------------------|


(repete tudo)

(2ª vez)

       D7             D#º
E|---------2---------------2----------------|
B|-----1-------1-------1--------------------|
G|---2---2---2---2---2---2------------------|
D|-0---------------1------------------------|
A|------------------------------------------|
E|------------------------------------------|


(2ª parte)

      Em              Em9/D#
E|---------0---------------2----------------|
B|-----0-------0-------0-------0------------|
G|---0---0---0---0---0---0---0---0----------|
D|-----------------1------------------------|
A|------------------------------------------|
E|-0----------------------------------------|


      Em/D            A7/C#
E|---------0--------------------------------|
B|-----0-------0-----------5----------------|
G|---0---0---0---0-----2-------2------------|
D|-0-----------------5---5---5---5----------|
A|-----------------4------------------------|
E|------------------------------------------|


      Dm7             G7
E|---------1---------------1----------------|
B|-----1-------1-------0-------0------------|
G|---2---2---2---2---0---0---0---0----------|
D|-0----------------------------------------|
A|------------------------------------------|
E|-----------------3------------------------|


      C                               G/B
E|---------0--------------------------------|
B|-----1-------1-------1-------1-------3----|
G|---0---0---0---0---0---0---0---0---0---0--|
D|------------------------------------------|
A|-3---------------3-------3-------2--------|
E|------------------------------------------|


      Am              Am7M
E|---------0---------------0----------------|
B|-----1-------1-------1-------1------------|
G|---2---2---2---2---1---1---1---1----------|
D|------------------------------------------|
A|-0---------------0------------------------|
E|------------------------------------------|


      Am7             Am6
E|---------0---------------0----------------|
B|-----1-------1-------5-------5------------|
G|---0---0---0---0---5---5---5---5----------|
D|------------------------------------------|
A|-0----------------------------------------|
E|-----------------5------------------------|


      C               D11             G
E|---------0---------------0---------------3|
B|-----1-------1-------3-------3-------0----|
G|---0---0---0---0---0---0---0---0---0---0--|
D|------------------------------------------|
A|-3---------------5------------------------|
E|---------------------------------3--------|


(refrão)

     G               G7M
E|---------3---------------2----------------|
B|-----3-------3-------3-------3------------|
G|---0---0---0---0---4---4---4---4----------|
D|------------------------------------------|
A|------------------------------------------|
E|-3---------------3------------------------|


 
     G               G7M
E|---------3---------------2----------------|
B|-----3-------3-------3-------3------------|
G|---0---0---0---0---4---4---4---4----------|
D|------------------------------------------|
A|------------------------------------------|
E|-3---------------3------------------------|


      C               C4      C
E|---------0-------------0-------0----------|
B|-----1-------1-------1-------1------------|
G|---0---0---0---0---0-------0--------------|
D|-----------------3-------2----------------|
A|-3----------------------------------------|
E|------------------------------------------|


      G
E|---------3--------------------------------|
B|-----3-------3----------------------------|
G|---0---0---0---0--------------------------|
D|------------------------------------------|
A|------------------------------------------|
E|-3----------------------------------------|


(repete tudo)

(2ª vez)

      G
E|---------3--------3-----------------------|
B|-----0-------0----0-----------------------|
G|---0---0---0---0--0-----------------------|
D|------------------0-----------------------|
A|------------------2-----------------------|
E|-3----------------3-----------------------|
Acordes para:
    Composição: Vander LeeColaboração e revisão:

    0 comentários

      mostrar mais comentários

      Conseguiu tocar?

      12tocaram0ainda não

      Grave um vídeo tocando Românticos e mande pra gente!

      00:00 / 00:00
      outros vídeos desta música
      repetirqualidadeautomática
      Outro vídeos desta música
        00:00 / 00:00
        automática
        Capítulos
        • Início
        • Tocando a música Românticos
        • Introdução
        • Tocando a introdução
        • Ensinando o dedilhado da introdução
        • Primeira parte
        • Ensinando o dedilhado da primeira parte
        • Segunda parte
        • Tocando a segunda parte
        • Ensinando o dedilhado da segunda parte
        • Refrão
        • Tocando o refrão
        • Tocando dedilhado do refrão
        • Encerramento
        • Extras
        OK