Cifra Club

The Wolf

Eddie Vedder

Cifra: Principal (violão e guitarra)
exibições 1.109
Tom: C#
Intro (0:00):

   D#m   Bbm   D#m   Bbm   D#m   Bbm    Ab
E|-----------|-----------|-----------|-----|
B|--7--------|--7--------|--7--------|--4--|
G|--8--8--6--|--8--8--6--|--8--8--6--|--5--|
D|--8-----8--|--8-----8--|--8-----8--|--6--|
A|--6-----8--|--6-----8--|--6-----8--|--6--|
E|--------6--|--------6--|--------6--|--4--|

Verso (0:24):

   D#m   Bbm   D#m   Bbm   D#m   Bbm    Ab
E|-----------|-----------|-----------|-----|
B|--7--------|--7--------|--7--------|--4--|
G|--8--8--6--|--8--8--6--|--8--8--6--|--5--|
D|--8-----8--|--8-----8--|--8-----8--|--6--|
A|--6-----8--|--6-----8--|--6-----8--|--6--|
E|--------6--|--------6--|--------6--|--4--|

Verso (0:47):

   D#m   Bbm   D#m   Bbm   D#m   Bbm    Ab
E|-----------|-----------|-----------|-----|
B|--7--------|--7--------|--7--------|--4--|
G|--8--8--6--|--8--8--6--|--8--8--6--|--5--|
D|--8-----8--|--8-----8--|--8-----8--|--6--|
A|--6-----8--|--6-----8--|--6-----8--|--6--|
E|--------6--|--------6--|--------6--|--4--|

Outro (1:11):

   D#m   Bbm   D#m   Bbm   D#m   Bbm    Ab
E|-----------|-----------|-----------|-----|
B|--7--------|--7--------|--7--------|--4--|
G|--8--8--6--|--8--8--6--|--8--8--6--|--5--|
D|--8-----8--|--8-----8--|--8-----8--|--6--|
A|--6-----8--|--6-----8--|--6-----8--|--6--|
E|--------6--|--------6--|--------6--|--4--|
Acordes para:
    Composição: Eddie Vedder Colaboração e revisão:
    • Juliano Paula

    0 comentários

    mostrar mais comentários

    Conseguiu tocar?

    0 tocaram 0 ainda não

    Grave um vídeo tocando The Wolf e mande pra gente!

    00:00 / 00:00
    outros vídeos desta música
    repetir qualidade Automático
    Outros vídeos desta música
    00:00 / 00:00
    Automático
    OK