Cifra Club

Aprenda

Welcome To Hell

Venom

Cifra: Principal (violão e guitarra)
tom: A
V E N O M

Welcome to Hell

From: Welcome to Hell 1981



Tune down guitars three half-steps (to C#)



Intro - Riff 1 (guitar and drums only first time)



||---------------------|-----------------|-------------------|

||-o-------------------|-----------------|-------------------|

||--------5-----5------|-5-----5----7~~--|------5-----5------|

||-o------5-----5------|-5-----5----7~~--|------5-----5------|

||----0-0---0-0---0-0--|---0-0-----------|--0-0---0-0---0-0--|

||---------------------|-----------------|-------------------|



(Bass enters first time)

|-----------------|-------------------|-------------------|

|-----------------|-------------------|-------------------|

|-5-----5---7~~---|------5-----5------|-5-----5---7~~-----|

|-5-----5---7~~---|------5-----5------|-5-----5---7~~-----|

|---0-0-----------|--0-0---0-0---0-0--|---0-0-------------|

|-----------------|-------------------|-------------------|

|------------------|--------------------||

|------------------|------------------o-||

|-----5-----5------|--5-----5----7~~----||

|-----5-----5------|--5-----5----7~~--o-||

|-0-0---0-0---0-0--|----0-0-------------||

|------------------|--------------------||



Verse 1

||---------------------|-----------------|-------------------|

||-o-------------------|-----------------|-------------------|

||--------5-----5------|-5-----5----7~~--|------5-----5------|

||-o------5-----5------|-5-----5----7~~--|------5-----5------|

||----0-0---0-0---0-0--|---0-0-----------|--0-0---0-0---0-0--|

||---------------------|-----------------|-------------------|



|-----------------|-------------------|-------------------|

|-----------------|-------------------|-------------------|

|-5-----5---7~~---|------5-----5------|-5-----5---7~~-----|

|-5-----5---7~~---|------5-----5------|-5-----5---7~~-----|

|---0-0-----------|--0-0---0-0---0-0--|---0-0-------------|

|-----------------|-------------------|-------------------|

|------------------|--------------------||

|------------------|------------------o-||

|-----5-----5------|--5-----5----7~~----||

|-----5-----5------|--5-----5----7~~--o-||

|-0-0---0-0---0-0--|----0-0-------------||

|------------------|--------------------||



Bridge:

|-------------------|-----------------------|

|-------------------|-----------------------|

|-------------------|-----------------------|

|------9-----9------|--9-----7~~---7~~------|

|------7-----7------|--7-----5~~---5~~------|

|--0-0---0-0---0-0--|----0-0----------------|

|--------------------------|---------------------------|

|--------------------------|---------------------------|

|--------------------------|---------------------------|

|--------9--------9--------|--9--------12----11--------|

|--------7--------7--------|--7--------10----9---------|

|--0--0-----0--0-----0--0--|-----0--0------------------|

|-------------------|-----------------------|

|-------------------|-----------------------|

|-------------------|-----------------------|

|------9-----9------|--9-----7~~---7~~------|

|------7-----7------|--7-----5~~---5~~------|

|--0-0---0-0---0-0--|----0-0----------------|

|-------------------|---------------------|

|-------------------|---------------------|

|-------------------|---------------------|

|------9-----9------|--9-----7~~---7~~----|

|------7-----7------|--7-----5~~---5~~----|

|--0-0---0-0---0-0--|----0-0--------------|



Chorus:

|-----------------------|-------------------|

|-----------------------|-------------------|

|-----------------------|-------------------|

|---------------3-------|-------------------|

|--3---2---0----3---3-3-|--3-3-3-3-3-3-3-3--|

|---------------1---1-1-|--1-1-1-1-1-1-1-1--|

|-----------------------|-------------------|

|-----------------------|-------------------|

|-----------------------|-------------------|

|---------------3-------|-------------------|

|--3---2---0----3---3-3-|--3-3-3-3-3-3-3-3--|

|---------------1---1-1-|--1-1-1-1-1-1-1-1--|

|-----------------------|-------------------|

|-----------------------|-------------------|

|-----------------------|-------------------|

|---------------3-------|-------------------|

|--3---2---0----3---3-3-|--3-3-3-3-3-3-3-3--|

|---------------1---1-1-|--1-1-1-1-1-1-1-1--|

|-------------------|---------------------|

|-------------------|---------------------|

|-------------------|---------------------|

|----------------3--|-(3)------------5----|

|-3-2-0----3-2-0-3--|-(3)-3-3-3-3-3--5----|

|-------3--------1--|-(1)-1-1-1-1-1--3----|

|-------------------|

|-------------------|

|-------------------|

|-(5)---------------|

|-(5)-5-5-5-5-5-5---|

|-(3)-3-3-3-3-3-3---|



Riff 1 (see above)

Verse 2 (see music above, lyrics below)

Bridge

Chorus



Interlude (evil woman chanting)

|-----------------------|---------------------|

|-o---------------------|---------------------|

|-----------------------|---------------------|

|-o--2---4---5----4--2--|--(2)---4---5---4----|

|----2---4---5----4--2--|--(2)---4---5---4----|

|----0---2---3----2--0--|--(0)---2---3---2----|

|-------------------|--------------------|

|-------------------|------------------o-|   repeat

|-------------------|-------4----3-------|   four times

|--2---4---5---4----|---5---4----3-----o-|

|--2---4---5---4----|---5---2----1-------|

|--0---2---3---2----|---3----------------|



(double-time feel)

|---------------------------------|---------------------------------|

|-o-------------------------------|-------------------------------o-|

|---------------------------------|---------------------------------|

|-o-------------------------------|-------------------------------o-|

|-3-3-3-3-3-3-3-3-3-3-3-3-3-3-3-3-|-3-3-3-3-3-3-3-3-3-3-3-3-3-3-3-3-|

|---------------------------------|---------------------------------|

|---------------------------------|---------------------------------|

|-o-------------------------------|-------------------------------o-|

|---------------------------------|---------------------------------|

|-o-------------------------------|-------------------------------o-|

|-2-2-2-2-2-2-2-2-2-2-2-2-2-2-2-2-|-2-2-2-2-2-2-2-2-2-2-2-2-2-2-2-2-|

|---------------------------------|---------------------------------|

|---------------------------------|---------------------------------|

|-o-------------------------------|-------------------------------o-|

|---------------------------------|---------------------------------|

|-o-------------------------------|-------------------------------o-|

|-5-5-5-5-5-5-5-5-5-5-5-5-5-5-5-5-|-5-5-5-5-5-5-5-5-5-5-5-5-5-5-5-5-|

|---------------------------------|---------------------------------|



(end double-time feel)

|--------|--------|--------|---------|

|--------|--------|--------|---------|

|---9----|--(9)---|--(9)---|---(9)---|

|---9----|--(9)---|--(9)---|---(9)---|

|---7----|--(7)---|--(7)---|---(7)---|

|---0----|--(0)---|--(0)---|---(0)---|



Riff 1

Verse 3

Chorus, with below ending after last bar:



|---------------------|

|---------------------|

|--------2------------|

|--------2------------|

|--0-0-0-0------------|

|---------------------|
Composição de Conrad Lant / Jeff Dunn / Tony Bray
3.625 exibições
    • ½ Tom
    • A
    • Bb
    • B
    • C
    • Db
    • D
    • Eb
    • E
    • F
    • F#
    • G
    • Ab
  • Adicionar à lista

    0 comentários

    Ver todos os comentários

    Conseguiu tocar?

    1 Tocaram 0 Ainda não

    Grave um vídeo tocando Welcome To Hell e nos envie!

    00:00 / 00:00
    Outros vídeos desta música
    Repetir Qualidade Automático
    Outros vídeos desta música
    00:00 / 00:00
    Automático

    Cifra Club Pro

    Aproveite o Cifra Club com benefícios exclusivos e sem anúncios
    Cifra Club Pro
    Aproveite o Cifra Club com benefícios exclusivos e sem anúncios
    OK