Cifra Club

Aprenda

Carnaval

Ventre

Cifra: Principal (violão e guitarra)
tom: C
                               
               Em                   Dm                        C
E|--------------------------------------------------------------------------------------------
B|---8----8----8----8----6----6----6----6----5----5----5----5-3--5----5-3--5---5-
G|--------------------------------------------------------------------------------------------
D|-------------------------------------------------------------------------------------------- (3x)
A|7----7----7----7----5----5----5----5----3---3----3----3-----------3----------3----
E|---------------------------------------------------------------------------------------------

                Em                      F                       C
E|----------------------------------------------------------------------------------------------------
B|---8----8----8----8----10----10----10----10----5----5----5----5-3--5----5-3--5---5-
G|----------------------------------------------------------------------------------------------------
D|----------------------------------------------------------------------------------------------------
A|7----7----7----7----8------8------8------8------3---3----3----3-----------3----------3----
E|----------------------------------------------------------------------------------------------------

( Am Dm7 C E7 )
Ah
Perdi o prazo
E o que era acaso
Passou do ponto
De quando era só... canto
E foi-se o tempo em que a vida dava tudo de bom e nada cobrava
Agora eu corro por mim

Am Dm7 C E7

( Dm Am E7 )
Arrumei um problema de tempo que a vida trouxe
                                             (Dm C7+) 2x
E a pressa de todas as coisas na minha cabeça

( Am Dm7 C E7 )
Venci o medo e juntei os pedaços
Passei por cima de todos os cacos
E lá, vi como era bem diferente
Vi como é bom lutar pela gente                     
Agora eu corro por nós

( Dm Am E7 )
Nós, nós, nós
Arranjei um espaço no tempo para que coubesse
Livros, cartas, discos, beijos
Livros, cartas, discos, beijos e um violão
Ah, livros, cartas, discos, beijos e um violão
    Dm   Am
AAAaaa

 Dm C
Só nós
Am G          Dm       C    Am
Passear pela praça de noite
   G           F
E tomar uma cerveja no bar
             Dm
Puxa uma cadeira pra vida
               F
Tomar uma cerveja no bar
                 Dm
Deixar tudo pra lá que vem vindo

( Em Dm C )
Nosso carnaval vai chegar
E essa fase ruim vai passar
Composição de Gabriel Ventura / Hugo Noguchi / Larissa Conforto
Colaboração e revisão:
  • Dirceu Carriel
  • Isaac Batista
3.952 exibições
    • ½ Tom
    • A
    • Bb
    • B
    • C
    • Db
    • D
    • Eb
    • E
    • F
    • F#
    • G
    • Ab
  • Adicionar à lista

    0 comentários

    Ver todos os comentários

    Conseguiu tocar?

    5 Tocaram 0 Ainda não

    Grave um vídeo tocando Carnaval e nos envie!

    00:00 / 00:00
    outros vídeos desta música
    repetir qualidade Automático
    Outros vídeos desta música
    00:00 / 00:00
    Automático

    Cifra Club Pro

    Aproveite o Cifra Club com benefícios exclusivos e sem anúncios
    Cifra Club Pro
    Aproveite o Cifra Club com benefícios exclusivos e sem anúncios
    OK