Cifra Club

Aprenda

Um aperto e um beijo

Ventre

Cifra: Principal (violão e guitarra)
tom: C
E|--------------------5--
B|-6--6---------------5--
G|-5--5--5/7/5--------5--
D|-5--5--5/7/5--------5--
A|-3--3---------------7--
E|----------------/5--5--

E|--------------------5--
B|------10------------5--
G|------10h12p10------5--
D|------10------------5--
A|--------------------7--
E|-/10------------/5--5--

E|--------------------5--
B|----6-----6---------5--
G|-5--5--5--5--5------5--
D|-5--5--5--5--5------5--
A|-3--3--3--3--3------7--
E|-----------------5--5--

E|--------------------5--
B|------10------------5--
G|------10h12p10------5--
D|------10------------5--
A|--------------------7--
E|-/10------------/5--5--



Dm
E era assim

Am7
Todo dia

Em
E era assim

Am7
Todo dia


Um aperto e um beijo... 

E|------5-------10--------
B|------5-------10--------
G|------5-------10--------    (x3)
D|------5-------10--------
A|------7-------12--------
E|--/5--5--/10--10--------

E|---------------5--------
B|---------------5--------
G|------9--------5--------
D|------10-------5--------
A|---------------7--------
E|--/8--8---/5---5--------

Colaboração e revisão:
  • Lucas Pinto
1.791 exibições
    • ½ Tom
    • A
    • Bb
    • B
    • C
    • Db
    • D
    • Eb
    • E
    • F
    • F#
    • G
    • Ab
  • Adicionar à lista

    0 comentários

    Ver todos os comentários

    Conseguiu tocar?

    0 Tocaram 0 Ainda não

    Grave um vídeo tocando Um aperto e um beijo e nos envie!

    00:00 / 00:00
    outros vídeos desta música
    repetir qualidade Automático
    Outros vídeos desta música
    00:00 / 00:00
    Automático

    Cifra Club Pro

    Aproveite o Cifra Club com benefícios exclusivos e sem anúncios
    Cifra Club Pro
    Aproveite o Cifra Club com benefícios exclusivos e sem anúncios
    OK