Cifra Club

Aprenda

Cobra de Vidro

Vespas Mandarinas

Cifra: Principal (violão e guitarra)
tom: B
[Intro] E  B  G#m
        E  B  G#m
        E  B  G#m
        E  B  G#m

[Verso]
E           B G#m
  Os mortos,     enfeitam as ruas
E                  B   G#m
  Junto ao perfume,     de lixo e gás
E             B    G#m
  Do oratório       à Santo Amaro
E              B    G#m
  Das rodovias       às marginais

F#               G#m
  Sigo o cortejo  agourento
F#               G#m
  Como uma procissão
F#                G#m
  Nada me resta de concreto
F#             G#m
  Além da solidão

[Pré-Refrão]
C#m
 Sob o cimento
B
Sob o cimento
C#m
Sob o cimento
A#4
Ooh

[Refrão]
E            G#m
 Nem um som ou movimento
B               C#m
 Só o silêncio, só o silêncio
E            G#m
 Ideais e sentimentos
B               C#m
 Só o silêncio, só o silêncio
E            G#m
 Não há dor ou sofrimento
B
 Só o silêncio
C#m          A#4
 Ooh  Oh oh oh
E            B G#m
 Nem perdição,    nem firmamento
E              B G#m
 Nem julgamento,    nem redenção
E          B G#m
 Nem emoção,     nem pensamento
E             B G#m
 Nem desalento,    nem salvação

F#                G#m
Sigo o cortejo agourento
F#                G#m
Como uma procissão
F#                G#m
Nada me resta de concreto
F#                G#m
Além da solidão
C#m            B               C#m
 Sob o cimento, Sob o cimento, Sob o cimento
A#4
Ooh

[Refrão]
E            G#m
 Nem um som ou movimento
B               C#m
 Só o silêncio, só o silêncio
E            G#m
 Ideais e sentimentos
B               C#m
 Só o silêncio, só o silêncio
E            G#m
 Não há dor ou sofrimento
B
 Só o silêncio
C#m          A#4
 Ooh  Oh oh oh

[Solo]
E|---------------------------------------------------------------------------------------------------11-----14-14-----14-14----|
B|---------------------4--------------------4~---4-----------4~--4-2-4~--2-4~--2-4-2-4-2-4~-------12----14b-------14b------14b-|
G|-8b-6-----8-8-6-------6b---6b-6p4h6p4---6----6--6-4----4-6----------------------------------/13------------------------------|
D|-----9-6--------9-6---------------------------------6~-----------------------------------------------------------------------|
A|-----------------------------------------------------------------------------------------------------------------------------|
E|-----------------------------------------------------------------------------------------------------------------------------|

[Refrão]
E            G#m
 Nem um som ou movimento
B               C#m
 Só o silêncio, só o silêncio
E            G#m
 Ideais e sentimentos
B               C#m
 Só o silêncio, só o silêncio
E            G#m
 Não há dor ou sofrimento
B
 Só o silêncio
C#m          A#4
 Ooh  Oh oh oh

[Riff]

E|---------------------------------------------|
B|---------------------------------------------|
G|---------------------------------------------|
D|---------------------------------------------|
A|----2----------------------------------------|
E|-0----4---4-5-4-2----------------------------|
Composição de Thadeu Meneghini
20.106 exibições
    • ½ Tom
    • A
    • Bb
    • B
    • C
    • Db
    • D
    • Eb
    • E
    • F
    • F#
    • G
    • Ab
  • Adicionar à lista

    0 comentários

    Ver todos os comentários

    Conseguiu tocar?

    14 Tocaram 1 Ainda não

    Grave um vídeo tocando Cobra de Vidro e nos envie!

    00:00 / 00:00
    outros vídeos desta música
    repetir qualidade Automático
    Outros vídeos desta música
    00:00 / 00:00
    Automático

    Cifra Club Pro

    Aproveite o Cifra Club com benefícios exclusivos e sem anúncios
    Cifra Club Pro
    Aproveite o Cifra Club com benefícios exclusivos e sem anúncios
    OK