Cifra Club

Olhos Verdes

Vibrações Rasta

Cifra: Principal
exibições 82.521
Tom: D
         
E|------------------------------------------------------------------------------|
B|------------------3-----5----3-----3-2---0------------------------------------|
G|------4----6----------------------------------2-2~4---4---2-------------------|
D|------------------------------------------------------------------------------|
A|------------------------------------------------------------------------------|
E|------------------------------------------------------------------------------|

E|----------------------------------5-------------------------------------------|
B|-----------------3-----5----7-----------7-----5----3----5---------------------|
G|-----4-----6--------------------------------------------------4-------7-------|
D|------------------------------------------------------------------------------|
A|------------------------------------------------------------------------------|
E|------------------------------------------------------------------------------|

E|------7----9--10--12--10----10--9---7--5--5~7---5--7--------------------------|
B|------------------------------------------------------------------------------|
G|------------------------------------------------------------------------------|
D|------------------------------------------------------------------------------|
A|------------------------------------------------------------------------------|
E|------------------------------------------------------------------------------|

E|------7----9--10--12--14---17--14---12--10--12---7---10-----------------------|
B|------------------------------------------------------------------------------|
G|------------------------------------------------------------------------------|
D|------------------------------------------------------------------------------|
A|------------------------------------------------------------------------------|
E|------------------------------------------------------------------------------|

           Bm        A          G
Quando acaba o dia, choro por dentro  
         Bm          A         G
E lembro quando a gente ia pro mar (ia pro mar)
             Bm      A             G
Quando chega a noite, lembro do tempo  
        Bm        A      G               G
Que a gente costumava viajar         No pensamento  
            Bm   A         G
Nos reggaes, que a gente ouvia  
     Bm      A       G
Em mim, tudo era alegria  
           Bm      A                G
Eu me sentia bem   quando estava com você  
        Bm         A            G
Meu bem, meu erro foi te perder  

Por isso eu  
      Bm     A        G
Vou surfar, pra esquecer
       Bm        A         G
Vou flutuar, nas ondas do mar
        Bm     A        G
Vou surfar, pra esquecer
       Bm        A         G
Vou flutuar, nas ondas do mar
           


          Bm     A         G
Sorrimos juntos, choramos também  
              Bm       A          G
Seus olhos verdes me faziam transpirar  
              Bm       A           G
Não sei se mentiu, só sei que acreditei  
           Bm       A         G
No motivo que fez você me deixar  
              Bm    A        G
Quando só amigos, nunca imaginei  
            Bm         A           G
Que um belo dia a gente fosse se amar  
              Bm        A          G
Pra mim você foi, foi presente de Jah  'Do Poderoso Jaah 
         Bm            A            G
Mais veio e foi sem ao menos eu esperar

por isso eu vou surfar
      

       Bm     A        G
Vou surfar, pra esquecer
       Bm        A         G
Vou flutuar, nas ondas do mar
        Bm     A        G
Vou surfar, pra esquecer
       Bm        A         G
Vou flutuar, nas ondas do mar (2x)
Acordes para:
    Composição: .Colaboração e revisão:

    0 comentários

      mostrar mais comentários

      Conseguiu tocar?

      24tocaram0ainda não

      Grave um vídeo tocando Olhos Verdes e mande pra gente!

      00:00 / 00:00
      outros vídeos desta música
      repetirqualidadeautomática
      Outro vídeos desta música
        00:00 / 00:00
        automática
        OK