Notificações Amigos pendentes

      Victor e Leo

      Boa Sorte Pra Você

      469.118 exibições
      Tom: C# (com acordes na forma de C) Capotraste na 1ª casa
      
      Intro: Am   F   C   G
      E|-----------------------------------|
      B|---1p0----1-0----1-3-3/5--1h3-3/5--|
      G|------2---2--2---------------------| (2x)
      D|-0h2-------------------------------|
      A|-----------------------------------|
      E|-----------------------------------|
      
      
      E|-3/5-5-5-5\3--|
      B|-3/5-5-5-5\3--|
      G|--------------| (2x)
      D|--------------|
      A|--------------|
      E|--------------|
      
      
      Riff 1:
      
      E|-5-7-8-7-5-------|
      B|-----------------|
      G|------------7/9--|
      D|-----------------|
      A|-----------------|
      E|-----------------|
      
      
      Riff 2:
      
      E|---11-9-11/13-----|
      B|------------------|
      G|------------------|
      D|------------------|
      A|------------------|
      E|------------------|
      
      
      C                   Am
      Pra você não foi sério
      C              Am
      E se ainda te quero
              Dm
      Sei que não dá mais
      F
      Já tentamos
      G
      Desisti
      C               Am
      Você fez tudo errado (Riff 1)
      C                 Am
      Sem me ver ao seu lado (Riff 2)
           Dm
      Você desprezou
      F          G
      Quem apenas te deu valor
      
      Refrão:
      C                               F
      Eu já disse o que tinha pra dizer
                      Am
      Não quis te perder
                     Dm
      Fiz tudo por você
        G          C
      E nada por mim
                          F
      Se tinha que ser assim
      
      Tudo bem
            Am
      Já passou
                      Dm
      Boa sorte pra você
           G             Am
      É o fim do nosso amor
      
                  Am      F        C      G
      E|--------------------------------------|
      B|---1h0----1---0---1-3-3/5--1h3--3h5---|
      G|------2---2---2-----------------------|
      D|-0h2----------------------------------|
      A|--------------------------------------|
      E|--------------------------------------|
      
      
                     Am     F        C     G
      E|--------3/5---------------------------|
      B|---1h0-------1--0---1-3-3/5--1h3-3h5--|
      G|------2------2--2---------------------|
      D|-0h2----------------------------------|
      A|--------------------------------------|
      E|--------------------------------------|
      
      
      (repete tudo)
      
      Refrão 2x:
      C                               F
      Eu já disse o que tinha pra dizer
                      Am
      Não quis te perder
                     Dm
      Fiz tudo por você
        G          C
      E nada por mim
                          F
      Se tinha que ser assim
      
      Tudo bem
            Am
      Já passou
                      Dm
      Boa sorte pra você
           G             Am
      É o fim do nosso amor
      
      F          C      G
      Não quis te perder
      Am               F
      Fim do nosso amor
                        Am
      Boa sorte pra você
        Composição: Victor Chavez Zapalá PimentelColaboração e revisão:
        • Mister.ytallo
        • Daniel
        • Renan
        • joao
        • +8

        Comentários 37

        140 .
        • carlos carlos: Em 13/02/2016 13:34

          lida

        • sergio eduardo sergio eduardo: Em 20/08/2014 11:07

          so falta o segundo violao pra tocar comigo

        • gustavo gustavo : Em 08/10/2013 12:02

          fica boa no tom de sol sustendido

        • gabriel gabriel: Em 11/05/2013 19:12

          nossa os professores do cifraclub são ótimos, aprendo tudo cara... valeu cifraclub!!!!!

        • oliveira09 oliveira09: Em 13/11/2012 00:00

          faltou só os dois terem aberto os olhos na gravação! kkkk
          e ter cantado um pouco melhor!!
          mas mt boa o video aula!

        • moisesalencar moisesalencar: Em 13/10/2012 16:50

          facil d+

        • wes.augusto1 wes.augusto1: Em 10/09/2012 08:51

          muito foda a musca, explicaçao nem se fala ... video aula 10 ..

        • liere liere: Em 03/07/2012 17:20

          eu acho que no tom de D fica bom...

        • liere liere: Em 03/07/2012 17:14

          gostaria da versão simplificada,por que não tenho capotraste

          • Hugo Hugo: Em 22/08/2015 19:02

            da para tocar sem o capotraste,e so diminuir meio tom

        140 cancelar
        0:00 / 0:00
        1 versão de Guitar Proformatodownloadscontribuição
        1 versão de partiturasformatodownloadscontribuição
        play/pausefechar subir/descer velocidade
        6ª corda E5ª corda A4ª corda D3ª corda G2ª corda B1ª corda E
          acordes
          publicidade
          fechar
          ok