Cifra Club

Boa Sorte Pra Você

Victor e Leo

Cifra: Principal
exibições 486.825
Tom: C# (com acordes na forma de C) Capotraste na 1ª casa
Intro: Am   F   C   G
E|-----------------------------------|
B|---1p0----1-0----1-3-3/5--1h3-3/5--|
G|------2---2--2---------------------| (2x)
D|-0h2-------------------------------|
A|-----------------------------------|
E|-----------------------------------|

E|-3/5-5-5-5\3--|
B|-3/5-5-5-5\3--|
G|--------------| (2x)
D|--------------|
A|--------------|
E|--------------|

Riff 1:
E|-5-7-8-7-5-------|
B|-----------------|
G|------------7/9--|
D|-----------------|
A|-----------------|
E|-----------------|

Riff 2:
E|---11-9-11/13-----|
B|------------------|
G|------------------|
D|------------------|
A|------------------|
E|------------------|

C                   Am
Pra você não foi sério
C              Am
E se ainda te quero
        Dm
Sei que não dá mais
F
Já tentamos
G
Desisti
C               Am
Você fez tudo errado (Riff 1)
C                 Am
Sem me ver ao seu lado (Riff 2)
     Dm
Você desprezou
F          G
Quem apenas te deu valor

Refrão:
C                               F
Eu já disse o que tinha pra dizer
                Am
Não quis te perder
               Dm
Fiz tudo por você
  G          C
E nada por mim
                    F
Se tinha que ser assim

Tudo bem
      Am
Já passou
                Dm
Boa sorte pra você
     G             Am
É o fim do nosso amor
            Am      F        C      G
E|--------------------------------------|
B|---1h0----1---0---1-3-3/5--1h3--3h5---|
G|------2---2---2-----------------------|
D|-0h2----------------------------------|
A|--------------------------------------|
E|--------------------------------------|
               Am     F        C     G
E|--------3/5---------------------------|
B|---1h0-------1--0---1-3-3/5--1h3-3h5--|
G|------2------2--2---------------------|
D|-0h2----------------------------------|
A|--------------------------------------|
E|--------------------------------------|

(repete tudo)

Refrão 2x:
C                               F
Eu já disse o que tinha pra dizer
                Am
Não quis te perder
               Dm
Fiz tudo por você
  G          C
E nada por mim
                    F
Se tinha que ser assim

Tudo bem
      Am
Já passou
                Dm
Boa sorte pra você
     G             Am
É o fim do nosso amor

F          C      G
Não quis te perder
Am               F
Fim do nosso amor
                  Am
Boa sorte pra você

0 comentários

    mostrar mais comentários

    Conseguiu tocar?

    114tocaram0ainda não

    Grave um vídeo tocando Boa Sorte Pra Você e mande pra gente!

    00:00 / 00:00
    outros vídeos desta música
    repetirqualidadeautomática
    Outro vídeos desta música
      00:00 / 00:00
      automática
      Capítulos
      • Início
      • Dicas iniciais
      • Tocando a música
      • Acordes da introdução
      • Tocando introdução
      • Ensinando solo da intro (Parte 1)
      • Ensinando solo da intro (Parte 2)
      • Ensinando ritmo da introdução
      • Ensinando ritmo da música (variações)
      • Acordes da primeira parte e refrão
      • Tocando primeira parte e refrão
      • Ensinando solo de passagem (Primeira parte)
      • Ensinando ritmo da primeira parte (variação)
      • Dicas para música
      • Tocando trecho repetição
      • Ensinando solo de passagem (Repetição)
      • Ensinando solo (Repetição - Parte 2)
      • Ensinando passagens de sanfona (Repetição)
      • Ensinando ritmo final (variação)
      • Encerramento
      OK