Cifra Club

Das Mãos de Deus

Victor e Leo

Cifra: Principal (violão e guitarra)
tom: D
[Intro] 

E|-----------------------------------------------|
B|--12--10-10-------10----12--10-10--------------|
G|------------11-11------------------11-12/14-14-|
D|-----------------------------------------------|
A|-----------------------------------------------|
E|-----------------------------------------------|

D
    Era de uma cor morena
                   G
O fim daquela tarde serena
Bm                            G
   Azul avermelhado, doce silhueta
           A                    D
Sombra do arfar singelo de uma borboleta
                                  G
Era de matizes tantas que nem sei dizer
Bm                                        G       A          D
    Aquele céu pedindo para a noite acontecer,        aconteceu

D                                          G
Aquarela nos cabelos dela tingia os olhos meus
 Bm                G
Pintando estrelas em mim
    A                     D     Bm
Ganhei o céu das mãos de Deus, você
    G                     Gm      D
Ganhei o céu das mãos de Deus, você

   D   G   A    Em
E|---------------------------------------------|--------------------------------------|
B|--12--10-10-------10----12--10-10------------|--10--8-8-----8-----10--8-8--------7----|
G|------------11-11-----------------7-9-9------|----------9-9----------------9-7------|
D|---------------------------------------------|--------------------------------------|
A|---------------------------------------------|--------------------------------------|
E|---------------------------------------------|---------------------------------------|

D                                    G
   Era de matizes tantas que nem sei dizer
Bm                                        G       A          D
    Aquele céu pedindo para a noite acontecer,        aconteceu

D                                          G
Aquarela nos cabelos dela tingia os olhos meus
 Bm                G
Pintando estrelas em mim
    A                     D     A
Ganhei o céu das mãos de Deus, você  (ai, ai, ai)

D                                          G
Aquarela nos cabelos dela tingia os olhos meus
 Bm                G
Pintando estrelas em mim
    A                     D     Bm
Ganhei o céu das mãos de Deus, você
 C#m(b5)                 F#    Bm     G        D
Ganhei o céu das mãos de Deus, vo.......cê,    vo......cê
00:00 / 00:00
Outros vídeos desta música
Repetir
Outros vídeos desta música
Composição de Victor Chaves
Colaboração e revisão:
  • Mauro Sergio
2.112 exibições
    • ½ Tom
    • A
    • Bb
    • B
    • C
    • Db
    • D
    • Eb
    • E
    • F
    • F#
    • G
    • Ab
  • Adicionar à lista

    0 comentários

    Ver todos os comentários

    Conseguiu tocar?

    2 Tocaram 0 Ainda não

    Grave um vídeo tocando Das Mãos de Deus e nos envie!

    Entre para oCifra Club PRO

    Tenha acesso a benefícios exclusivos no App e no Site

    • Chega de anúncios

    • Prioridade de compra em lançamentos

    • Mais recursos no app do Afinador

    • Atendimento Prioritário

    • Descontos nos produtos Cifra Club

    • Ajude a produzir mais conteúdo

    00:00 / 00:00

    Cifra Club Pro

    Aproveite o Cifra Club com benefícios exclusivos e sem anúncios
    Cifra Club Pro
    Aproveite o Cifra Club com benefícios exclusivos e sem anúncios
    OK