Cifra Club

Lágrimas

Victor e Leo

Cifra: Principal
exibições 90.137
Tom: E (com acordes na forma de C) Capotraste na 4ª casa
Intro: Am  F  C  G

       Am
Tantos planos
       F
Tantos sonhos
       C
Tantos erros
    G
Era cedo
       Am
Foi tão simples
   F
Me Pergunto
     C
Nesse jogo
            G
Quem saiu perdendo

Pré-refrão:
F
Não procure lágrimas
   G
Em meu olhar
    Am
Eu não vou perguntar
         Am
O que aconteceu
F
Seus olhos dizem tudo
          G
Que eu preciso ouvir
        Am
Mas não vejo em você
                 F  G  Am
O que está em mim

Refrão:
      F          G
Mil desejos, fantasias
   Am
Segredos, sentimentos
    Am
Perdidos no tempo
      F
As lembranças,
      G
os momentos
   Am
E lágrimas choradas
    Am
Jogadas ao vento

 Solo 2x: F  G  Am  Am
E|---------------------------------------------------
B|-----0-1-0-1-0-------------------------------------
G|-0h2-----------2-0------0--------------------------
D|--------------------2-0----------------------------
A|---------------------------------------------------
E|---------------------------------------------------

E|-----------------------3---------------------------
B|---------1--3/5--5-3-5----5-3---3\1----------------
G|-----0h2----------------------5-----2--------------
D|-0h2-----------------------------------------------
A|---------------------------------------------------
E|---------------------------------------------------

E|-----5---5---5-----7---7-----8---8--10-8-----------
B|-----------------------------------------10--------
G|-3/5---5---5---5/7---7---7/9---9-------------------
D|---------------------------------------------------
A|---------------------------------------------------
E|---------------------------------------------------

       Am
Tantos planos
       F
Tantos sonhos
       C
Tantos erros
    G
Era cedo
       Am
Foi tão simples
     F
Me Pergunto
      C
Nesse jogo
             G
Quem saiu perdendo

Pré-refrão:
F
Não procure lágrimas
   G
Em meu olhar
    Am
Eu não vou perguntar

O que aconteceu
F
Seus olhos

Dizem tudo
       G
Que eu preciso ouvir
        Am
Mas não vejo em você
                 F  G  Am
O que está em mim

Refrão:
      F          G
Mil desejos, fantasias
   Am
Segredos, sentimentos

Perdidos no tempo
      F
As lembranças,
      G
os momentos
   Am
E lágrimas choradas
                F
Jogadas ao vento...

           Am
Tantos Planos
             F  G  Am
Tantos sonhos...
Acordes para:
    Colaboração e revisão:

    0 comentários

      mostrar mais comentários

      Conseguiu tocar?

      15tocaram0ainda não

      Grave um vídeo tocando Lágrimas e mande pra gente!

      00:00 / 00:00
      outros vídeos desta música
      repetirqualidadeautomática
      Outro vídeos desta música
        00:00 / 00:00
        automática
        OK