Notificações Amigos pendentes

      Victor e Leo

      Longe

      21.941 exibições
      Tom: D# (com acordes na forma de C) Capotraste na 3ª casa
      Intro: C
      
      C
        Longe é um lugar que não existe
                                  F
        Quando se quer ficar bem junto
                    C
        Não importa onde
                             F
        Siga adiante pois o mundo
                         C
        Vai além do horizonte
      
            Bm9  Am
        Meu  a  - mor,
                F
        Amor é mais do que palavra
               C
        É o lugar aonde estava
                 F
        Quem te fez ficar
      G                  C   Bm9
        Sem ter o que dizer
      Am           F
        Amor é o trivial que encanta
                     C
        Um susto que a ninguém espanta
              F  G               C  (Riff 1)
        É cantar   sem saber porquê
      
      C
        Fuja pra si mesmo enquanto é tempo
                           F (Riff 2)
        Águas e tempos evaporam
                     C (Riff 1)
        Beba esse momento
                              F (Riff 2)
        Seja vizinho de onde moram
                            C (Riff 1)
        Seus melhores pensamentos
      
            Bm9  Am
        Meu  a  - mor,
                F
        Amor é mais do que palavra
               C
        É o lugar aonde estava
                 F
        Quem te fez ficar
      G                  C   Bm9
        Sem ter o que dizer
      Am           F
        Amor é o trivial que encanta
                     C
        Um susto que a ninguém espanta
              F  G               C  (riff 3)
        É cantar   sem saber porquê
      Solo:
      
              C                      F                 C
      E|---6------------------------------------------|
      B|-/8--8\6-4-4-6/8\6-4-----------------4-3------|
      G|----------5---------5h3-3h5-----3h5--5-5--5-3-|
      D|-----------------------5-----3h5----------6-5-|
      A|----------------------------------------------|
      E|----------------------------------------------|
      
      
                                F                 G
      E|--------------6-6h8/11--------/15-13--13------|
      B|---------4-6h8--------------11------16--------|
      G|----3-3h5--------------10h12------------15-15-|
      D|-3h5------------------------------------------|
      A|----------------------------------------------|
      E|----------------------------------------------|
      
      
                F             C
      E|----------------------------------------------|
      B|-4/6\4-------------4--------------------------|
      G|-5/7\5-3h5p3----3--3--------------------------|
      D|-------------3h5---5--------------------------|
      A|----------------------------------------------|
      E|----------------------------------------------|
      
      
      
            Bm9  Am
        Meu  a  - mor,
                F
        Amor é mais do que palavra
               C
        É o lugar aonde estava
                 F
        Quem te fez ficar
      G                  C   Bm9
        Sem ter o que dizer
      Am           F
        Amor é o trivial que encanta
                     C
        Um susto que a ninguém espanta
              F  G               C
        É cantar   sem saber porquê
      Riff 1:
      
      E|--------------------------|
      B|--------------------------|
      G|--------------------------|
      D|-8h10-10h8-X-8-X-8--8-8---|
      A|------------------10---10-|
      E|--------------------------|
      
      
      Riff 2:
      
      E|--------------------------|
      B|--------------------------|
      G|--------------------------|
      D|--------------------------|
      A|-6h8-8h6-X-6-X-6---6-6----|
      E|-----------------8-----8--|
      
      
      Riff 3:
      
      E|--------------------------|
      B|--------------------------|
      G|--------------------------|
      D|---8-8-8-10-8-8--8-8-8-10-|
      A|-10------------10---------|
      E|--------------------------|
      
      
        Composição: Vitor ChavesColaboração e revisão:
        • palubo

        Comentários 6

        140 .
        • Gabriella Gabriella: Em 22/08/2014 14:56

          essa música é perfeita , essa dupla é perfeita

        • rockandcountry rockandcountry: Em 22/06/2013 19:21

          *------------------------------------* lindaa, é fácil tocar

        • Lucasgn Lucasgn: Em 12/03/2012 09:26

          Tem alguma musica sem solo da hora ?? lol

        • driix driix: Em 12/12/2011 17:43

          Essa música é linda!!!

        • Renan Renan: Em 11/11/2011 19:29

          caramba, tava tentando pegar de ouvido, errei por meio tom. tava tocando em Ré !

        • karlospally karlospally: Em 05/11/2011 14:22

          esse cara sabe compor musica de vdd

        140 cancelar

        conseguiu tocar?

        covers

        Grave um vídeo tocando Longe e mande pra gente!

        Ex.: http://www.youtube.com/watch?v=0IvSvIwGdwk
        ver covers de outras músicas »
        0:00 / 0:00

        Capítulos

          2 versões de violão dificuldade exibições contribuição e correção
          2 versões de guitarra dificuldade exibições contribuição e correção
          2 versões de cavaco dificuldade exibições contribuição e correção
          2 versões de teclado dificuldade exibições contribuição e correção
          play/pausefechar subir/descer velocidade
          6ª corda E5ª corda A4ª corda D3ª corda G2ª corda B1ª corda E
            acordes
            publicidade
            fechar
            ok