Enviar cifraEntrar

Longe

Victor e Leo

Cifra: Principal
exibições 22.135
Tom: D# (com acordes na forma de C) Capotraste na 3ª casa
Intro: C

C
  Longe é um lugar que não existe
                            F
  Quando se quer ficar bem junto
              C
  Não importa onde
                       F
  Siga adiante pois o mundo
                   C
  Vai além do horizonte

      Bm9  Am
  Meu  a  - mor,
          F
  Amor é mais do que palavra
         C
  É o lugar aonde estava
           F
  Quem te fez ficar
G                  C   Bm9
  Sem ter o que dizer
Am           F
  Amor é o trivial que encanta
               C
  Um susto que a ninguém espanta
        F  G               C  (Riff 1)
  É cantar   sem saber porquê

C
  Fuja pra si mesmo enquanto é tempo
                     F (Riff 2)
  Águas e tempos evaporam
               C (Riff 1)
  Beba esse momento
                        F (Riff 2)
  Seja vizinho de onde moram
                      C (Riff 1)
  Seus melhores pensamentos

      Bm9  Am
  Meu  a  - mor,
          F
  Amor é mais do que palavra
         C
  É o lugar aonde estava
           F
  Quem te fez ficar
G                  C   Bm9
  Sem ter o que dizer
Am           F
  Amor é o trivial que encanta
               C
  Um susto que a ninguém espanta
        F  G               C  (riff 3)
  É cantar   sem saber porquê
Solo:

        C                      F                 C
E|---6------------------------------------------|
B|-/8--8\6-4-4-6/8\6-4-----------------4-3------|
G|----------5---------5h3-3h5-----3h5--5-5--5-3-|
D|-----------------------5-----3h5----------6-5-|
A|----------------------------------------------|
E|----------------------------------------------|


                          F                 G
E|--------------6-6h8/11--------/15-13--13------|
B|---------4-6h8--------------11------16--------|
G|----3-3h5--------------10h12------------15-15-|
D|-3h5------------------------------------------|
A|----------------------------------------------|
E|----------------------------------------------|


          F             C
E|----------------------------------------------|
B|-4/6\4-------------4--------------------------|
G|-5/7\5-3h5p3----3--3--------------------------|
D|-------------3h5---5--------------------------|
A|----------------------------------------------|
E|----------------------------------------------|



      Bm9  Am
  Meu  a  - mor,
          F
  Amor é mais do que palavra
         C
  É o lugar aonde estava
           F
  Quem te fez ficar
G                  C   Bm9
  Sem ter o que dizer
Am           F
  Amor é o trivial que encanta
               C
  Um susto que a ninguém espanta
        F  G               C
  É cantar   sem saber porquê
Riff 1:

E|--------------------------|
B|--------------------------|
G|--------------------------|
D|-8h10-10h8-X-8-X-8--8-8---|
A|------------------10---10-|
E|--------------------------|


Riff 2:

E|--------------------------|
B|--------------------------|
G|--------------------------|
D|--------------------------|
A|-6h8-8h6-X-6-X-6---6-6----|
E|-----------------8-----8--|


Riff 3:

E|--------------------------|
B|--------------------------|
G|--------------------------|
D|---8-8-8-10-8-8--8-8-8-10-|
A|-10------------10---------|
E|--------------------------|

  • 1
  • 2
  • 3
  • 4
  • 5
  • 6
  • 7
  • 8
  • 9
  • 10
  • 11
  • 12
    Acordes para:
      Composição: Vitor ChavesColaboração e revisão:
      • palubo

      0 comentários

        mostrar mais comentários

        Conseguiu tocar?

        4tocaram0ainda não

        Grave um vídeo tocando Longe e mande pra gente!

        00:00 / 00:00
        outros vídeos desta música
        repetirqualidadeautomática
        • automática
        Outro vídeos desta música
          00:00 / 00:00
          automática
          • automática
          Acordes para:violão e guitarra
          dificuldadeexibiçõescontribuições
          fecharplay/pause subir/descer velocidade
            acordes
            fechar
            OK
            Feedback