Cifra Club

Mal Resolvido

Victor e Leo

Cifra: Principal
exibições 11.243
Tom: E (com acordes na forma de C) Capotraste na 4ª casa
Intro:
E|-0---0-0-0---0-----------------------|
B|-0h1-1-1-1p0-0-----------------------|
G|-------------------------------------|
D|-0h2-2-2-2p0-0-----------------------|
A|-------------------------------------|
E|-------------------------------------|

E|-----3--------3--------3--------3----|
B|-5-5---5--5-5---5--5-5---5--5-5---5--|
G|-------------------------------------|
D|-------------------------------------|
A|-------------------------------------|
E|-------------------------------------|

E|-----0--------0--------0--------0----|
B|-1-1---1--1-1---1--1-1---1--1-1---1--|
G|-------------------------------------|
D|-------------------------------------|
A|-------------------------------------|
E|-------------------------------------|

E|-----3--------3--------3--------3----|
B|-5-5---5--5-5---5--5-5---5--5-5---5--|
G|-------------------------------------|
D|-------------------------------------|
A|-------------------------------------|
E|-------------------------------------|

E|-----0--------0----------------------|
B|-1-1---1--1-1-------1p0-1h3h5--------|
G|----------------0h2------------------|
D|-------------------------------------|
A|-------------------------------------|
E|-------------------------------------|


 Am
Do vazio que ficou restou
  C
A certeza que não acabou
   Am
Se foi mesmo o fim do nosso amor
   C
isso ninguém decidiu
    F      G
Ficou mal, mal resolvido
Riff:
E|-0h1p0-----------|
B|-------0h2p0-2~~-|
G|-----------------|
D|-----------------|
A|-----------------|
E|-----------------|


Am
É tudo o que sei
F                     G
Afinal, ainda estou aqui
Riff 2:
E|---5p3-----------|
B|-5---------------|
G|-----------------|
D|-----------------|
A|-----------------|
E|-----------------|


Refrão:
F                            Am
Então, digo que te quero de volta
Riff 3:
E|------8p5--------|
B|-8h10------------|
G|-----------------|
D|-----------------|
A|-----------------|
E|-----------------|


F                              C
Nem que seja a minha última ilusão
Riff 4:
E|---------------------------------|
B|---------------------------------|
G|-0h2-2-2-0h2-2-2-0h2-2-2-0h2-2-2-|
D|-0h2-2-2-0h2-2-2-0h2-2-2-0h2-2-2-|
A|---------------------------------|
E|---------------------------------|


F                              Am
Então, porque você não abre a porta?
Riff 5:
E|---------------------------|
B|-----1---1p0---------1-----|
G|-0h2---2-----2-0-0h2---0h2-|
D|---------------------------|
A|---------------------------|
E|---------------------------|


F                          G
Me deixe entrar em você e deixe acontecer ...

 Am
Do vazio que ficou restou
  C
A certeza que não acabou
   Am
Se foi mesmo o fim do nosso amor
   C
isso ninguém decidiu
    F      G
Ficou mal, mal resolvido
Riff:
E|-0h1p0-----------|
B|-------0h2p0-2~~-|
G|-----------------|
D|-----------------|
A|-----------------|
E|-----------------|


Am
É tudo o que sei
F                     G
Afinal, ainda estou aqui
Riff 2:
E|---5p3-----------|
B|-5---------------|
G|-----------------|
D|-----------------|
A|-----------------|
E|-----------------|


Refrão:
F                            Am
Então, digo que te quero de volta
Riff 3:
E|------8p5--------|
B|-8h10------------|
G|-----------------|
D|-----------------|
A|-----------------|
E|-----------------|


F                              C
Nem que seja a minha última ilusão
Riff 4:
E|---------------------------------|
B|---------------------------------|
G|-0h2-2-2-0h2-2-2-0h2-2-2-0h2-2-2-|
D|-0h2-2-2-0h2-2-2-0h2-2-2-0h2-2-2-|
A|---------------------------------|
E|---------------------------------|


F                              Am
Então, porque você não abre a porta?
Riff 5:
E|---------------------------|
B|-----1---1p0---------1-----|
G|-0h2---2-----2-0-0h2---0h2-|
D|---------------------------|
A|---------------------------|
E|---------------------------|


F
Me deixe entrar em você...
Riff 6:
E|------8p7---8h10~~--|
B|-8h10-----8---------|
G|--------------------|
D|--------------------|
A|--------------------|
E|--------------------|


G
E deixe acontecer ...
F                            Am
Então, digo que te quero de volta
Riff 3:
E|---5---5---5-----5---------|
B|-5---5---5----5------------|
G|---------------------------|
D|---------------------------|
A|---------------------------|
E|---------------------------|


F                              C
Nem que seja a minha última ilusão
Riff 4:
E|---------------------------------|
B|---------------------------------|
G|-0h2-2-2-0h2-2-2-0h2-2-2-0h2-2-2-|
D|-0h2-2-2-0h2-2-2-0h2-2-2-0h2-2-2-|
A|---------------------------------|
E|---------------------------------|


F                              Am
Então, porque você não abre a porta?
Riff 3:
E|----8----8---10----8-------|
B|-10---10---10----10--------|
G|---------------------------|
D|---------------------------|
A|---------------------------|
E|---------------------------|


F
Me deixe entrar em você...
Riff 6:
E|--------3-----------|
B|--5-3-5-------------|
G|--------------------|
D|--------------------|
A|--------------------|
E|--------------------|


G
E deixe acontecer ...
Solo:
E|--------------------------------------------------------------|
B|-1p0---1p0---1p0----------------------------------------------|
G|-----2-----2-----2-0-0h2---------0h2h4p2-0---0----------------|
D|-----------------------------0h2-----------2---2-0-0h2~~------|
A|-------------------------3-3----------------------------------|
E|--------------------------------------------------------------|

E|--------------------------------------------------------------|
B|--------------3~~/5----------0h1-------------1-0--------------|
G|---------0h2/4-------------------2-0-0h2~~---2-0--------------|
D|-----0h2---------------------------------0h2-----2-0h2-2------|
A|-0h2-------------------0h2p0-----------------------------3-3h5|
E|-------------------0h2----------------------------------------|
                 Am
E|--------3-----0-|
B|--------------1-|
G|--------------2-|
D|------1/2-----2-|
A|--3-5-----3p2-0-|
E|----------------|
Acordes para:
    Colaboração e revisão:

    0 comentários

      mostrar mais comentários

      Conseguiu tocar?

      3tocaram0ainda não

      Grave um vídeo tocando Mal Resolvido e mande pra gente!

      00:00 / 00:00
      outros vídeos desta música
      repetirqualidadeautomática
      Outro vídeos desta música
        00:00 / 00:00
        automática
        OK