Notificações Amigos pendentes

      Victor e Leo

      Mariposas

      83.466 exibições
      Tom: D
      (intro)
      
      
      E |---------------------------------
      B |---------------------------------
      G |--2-4-4-2--4-2---4-4-2---4-4-2---
      D |-4-------4-----4-------4------4--
      A |---------------------------------
      E |---------------------------------
      
      
      E |--------------------------------
      B |--------------------------------
      G |-2-2----2-----2-2----2----------
      D |----4-2---4-2----4-2--4-2-------
      A |--------------------------------
      E |--------------------------------
      
      
      E |--------------------------------
      B |-3-3-2---3-2---3-3-2---2-3-2----
      G |-------2-----2-------2-------2--
      D |--------------------------------
      A |--------------------------------
      E |--------------------------------
      
      
      E |-------------
      B |-------------
      G |-2--2-0-2-0--
      D |-2--2-0-2-0--
      A |-------------
      E |-------------
      
      
      E |---3-3-3----0-0-0------------
      B |---3-3-3----2-2-2---2-3-2----
      G |---0-0-0----2-2-2---4-4-4----
      D |---2--------2----------------
      A |---2------0-------2----------
      E |-3---------------------------
      
      
               Bm                      D
      Lo siento que lo tiempo ya no pasas
                               A
      Dices que no sabias a nada
        Bm
      Amar asi
        Bm
      Fue todo tan bonito
              D
      Que volaste al infinito
            A                          Bm
      Casi como Las mariposas de un jardin
      Em          G
      Ahora que regresas
       D                               A
      Y confundes lo que en otra encontre tambien
      Em                 G
      Dividido entre dos mundos
                   A
      Se que estoy amando
                       Bm
      Pero aun no se a quien...
      
             G             D
      No se decir lo que cambio
           A               Bm
      Mas nada ha quedado igual
           G           D
      Una noche nos buscamos
            A              Bm
      Y al final todo esta mal
         G               D
      Pues tu quieres provar
          A         Bm
      Si esto ya termino
         G                D
      Mariposas siempre vuelven
             A              Bm
      Y tu jardin siempre soy yo
        Composição: Victor chavesColaboração e revisão:
        • -•{..ArThur..}•-
        • GueL

        Comentários 0

        140 .
        140 cancelar

        conseguiu tocar?

        covers

        Grave um vídeo tocando Mariposas e mande pra gente!

        Ex.: http://www.youtube.com/watch?v=0IvSvIwGdwk
        ver covers de outras músicas »
        0:00 / 0:00

        Capítulos

          1 versão de violão dificuldade exibições contribuição e correção
          1 versão de guitarra dificuldade exibições contribuição e correção
          1 versão de cavaco dificuldade exibições contribuição e correção
          1 versão de teclado dificuldade exibições contribuição e correção
          play/pausefechar subir/descer velocidade
          6ª corda E5ª corda A4ª corda D3ª corda G2ª corda B1ª corda E
            acordes
            publicidade
            fechar
            ok