Cifra Club

Moça Rebelde

Victor e Leo

Cifra: Principal (violão e guitarra)
tom: G
(intro 2x) Em G Am C D

E|------------------|----------------------|
B|------------------|----------------------|
G|---------------0--|-------------------0--|
D|-----2---2---2----|-----0---0---0---0----|
A|---2---2---2------|---2---2---2---2------|
E|-0----------------|-3--------------------|

E|------------------|----------------0-----|
B|---------------1--|-------1------3-------|
G|-----2---2---2----|-----0------2---------|
D|---2---2---2------|---2------0-----------|
A|-0----------------|-3--------------------|
E|------------------|----------------------|

Em     G              Am              D D9 D
Faz um tempo,uma linda moça apareceu aqui
Em
E eu,um simples caipira
G               Am            D D9 D
Ouvindo seu choro,então,a recebi
Am
Ela estava de passagem
C                 G           D D9 D
mas nem sabia direito pra onde ir
Am                      C
Sua voz era um canto suave
            D
Seu cheiro fazia o vento dormir

E|------------------|----------------------|
B|------------------|----------------------|
G|---------------0--|-------------------0--|
D|-----2---2---2----|-----0---0---0---0----|
A|---2---2---2------|---2---2---2---2------|
E|-0----------------|-3--------------------|

E|------------------|----------------0-----|
B|---------------1--|-------1------3-------|
G|-----2---2---2----|-----0------2---------|
D|---2---2---2------|---2------0-----------|
A|-0----------------|-3--------------------|
E|------------------|----------------------|

Em                     G
Ela disse que fugiu de casa
              Am        D D9 D
Era rica, mas não vivia bem
Em                               G
me perguntou o que eu tinha de riqueza
           Am                  D D9 D
Terra ou dinheiro pra ser alguém

Am                          C
Eu disse"moça, eu sei muito pouco
                 D
mas tudo o que aprendo me faz ser feliz
Am                                C
E essa vida que eu levo de um jeito muito simples
    D
É a vida que eu sempre quis"

E|-3---3---3----3-----2------------------|
B|---5---5----5---5-3---3-----5---5---5--|
G|------------------------3/5---5---5----|
D|---------------------------------------|
A|---------------------------------------|
E|---------------------------------------|

E|-12-12-12\10--10-10-10\7--7-7-7\5--5-5-5\3--|
B|--------------------------------------------|
G|--------------------------------------------|
D|--------------------------------------------|
A|--------------------------------------------|
E|--------------------------------------------|

E|-3-3-3\2--2-2\0--0-0-0------|--2h3p2------|
B|-----------------------3-3--|--------3----|
G|----------------------------|----------2--|
D|----------------------------|-------------|
A|----------------------------|-------------|
E|----------------------------|-------------|

E|-0-0-0-2-2h3--|-3-3-3-5-5/7--|------10-12-10--|
B|--------------|--------------|-8/10-----------|
G|--------------|--------------|----------------|
D|--------------|--------------|----------------|
A|--------------|--------------|----------------|
E|--------------|--------------|----------------|

E|-15-15\12-10--|
B|------------10|
G|--------------|
D|--------------|
A|--------------|
E|--------------|

Em           G
Eu era um caipira
                  Am                       D D9 D
Vivendo entre a campina e as estrelas do céu
Em                         G
E ela ainda era uma moça rebelde
            Am                   D D9 D
Uma colméia linda,sem favo e sem mel
        Am            C
Pra ela,tudo era ter o mundo
             D
E sapatos de ouro calçados nos pés
    Am                C
mas pra mim sempre foi diferente
             D
Ser filho de Deus é tudo o que se é
      Em                   G
mas o tempo passou e ela ficou comigo
   Am                D
Destino sem explicação
     Em              G            Am               D
O feitiço e a magia da natureza mudaram seu coração
       Am             C
Hoje,a moça rebelde e eu estamos juntos
    D
E vivemos de amor
      Am                   C                  D
E as flores de um passado triste murcharam,morreram perderam a cor

E|----------------|----------------------|
B|----------------|----------------------|
G|----------------|-------------------0--|
D|-----2---2---0--|-----0---0---0---0----|
A|---2---2---2----|---2---2---2---2------|
E|-0--------------|-3--------------------|

E|------------------|-0--0--|
B|---------------1--|-1--3--|
G|-----2---2---2----|-0--2--|
D|---2---2---2------|-2--0--|
A|-0----------------|-3-----|
E|------------------|-------|
(2x)

E|--------------------------------------------------------|
B|------------------------7-8-7-8-10/12-12/13-12----------|
G|-9-9-7-9--9-7-9h7-----9------------------------14-12----|
D|------------------8/9-----------------------------------|
A|--------------------------------------------------------|
E|--------------------------------------------------------|

E|---------------------|------------------------------|
B|---------------------|------------------------------|
G|-7h9-7-x-------------|-----------------------0h2-0--|
D|----------5h7-5------|-2-2-0-2--2-0-2----0-2--------|
A|----------------7-5--|-----------------2------------|
E|---------------------|------------------------------|

E|---------------3-3h5-3----------------|
B|---------3-3h5---------5-3-3h5-3------|
G|---0-2h4-------------------------4-2--|
D|-2------------------------------------|
A|--------------------------------------|
E|--------------------------------------|

E|----------------------------|
B|-8-x-x-5-5-x-x-8-x-x-12-12--|
G|----------------------------|
D|----------------------------|
A|----------------------------|
E|----------------------------|

E|---------------------------------|
B|-5--5-5-7--7-7-8--8-8-10--10-10--|
G|---------------------------------|
D|---------------------------------|
A|---------------------------------|
E|---------------------------------|

E|-15-15-12-12-10-10------------------------|
B|-------------------12-12-10-10------------|
G|-------------------------------12-12-9-9--|
D|------------------------------------------|
A|------------------------------------------|
E|------------------------------------------|

E|-15-15-12-12-10-10-------------------|
B|-------------------12-10/12-x-10/12--|
G|-------------------------------------|
D|-------------------------------------|
A|-------------------------------------|
E|-------------------------------------|

E|------------------|----------------------|
B|------------------|----------------------|
G|---------------0--|-------------------0--|
D|-----2---2---2----|-----0---0---0---0----|
A|---2---2---2------|---2---2---2---2------|
E|-0----------------|-3--------------------|

E|------------------|----------------0-------0--|
B|---------------1--|-------1------3---3/5---0--|
G|-----2---2---2----|-----0------2-----------0--|
D|---2---2---2------|---2------0-------------2--|
A|-0----------------|-3----------------------2--|
E|------------------|------------------------0--|
00:00 / 00:00
Outros vídeos desta música
Repetir
Outros vídeos desta música
Composição de Victor Chaves
68.736 exibições
    • ½ Tom
    • A
    • Bb
    • B
    • C
    • Db
    • D
    • Eb
    • E
    • F
    • F#
    • G
    • Ab
  • Adicionar à lista

    0 comentários

    Ver todos os comentários

    Conseguiu tocar?

    16 Tocaram 0 Ainda não

    Grave um vídeo tocando Moça Rebelde e nos envie!

    Entre para oCifra Club PRO

    Tenha acesso a benefícios exclusivos no App e no Site

    • Chega de anúncios

    • Prioridade de compra em lançamentos

    • Mais recursos no app do Afinador

    • Atendimento Prioritário

    • Descontos nos produtos Cifra Club

    • Ajude a produzir mais conteúdo

    00:00 / 00:00

    Cifra Club Pro

    Aproveite o Cifra Club com benefícios exclusivos e sem anúncios
    Cifra Club Pro
    Aproveite o Cifra Club com benefícios exclusivos e sem anúncios
    OK