Enviar cifraEntrar

Nascemos Pra Cantar

Victor e Leo

Cifra: Completa
exibições 1.050
Tom: E (com acordes na forma de C) Capotraste na 4ª casa
Dica: Sempre que vocês chegarem na forma de C. 
Vocês podem dar um efeito colocando o dedo midinho na terceira casa da 
corde Mizinha(e) não modificando o acorde.

Intro: G F C

           Am7/G     F/C                       Am7/G     F/C
E|-----------------|-----------------|-----------------|----------7-----------|
B|---------------5-|-----5---5-------|---------------5-|------7/9---7-5p4-----|
G|-------4-----4---|-----4h6-4-----4-|-------4-----4---|------------------6p4-|
D|-6/7/6-----6-----|---7-------6p4---|-6/7/6-----6-----|---7------------------|
A|-----------------|-7---------------|-----------------|-7--------------------|
E|---------7-------|-----------------|---------7-------|----------------------|


           Am7/G     F/C                       Am7/G     F/C
E|-----------------|-----------------|-----------------|----------7-------|
B|---------------5-|-----5---5-------|---------------5-|------7/9---7-5-5-|
G|-------4-----4---|-----4h6-4-----4-|-------4-----4---|------------------|
D|-6/7/6-----6-----|---7-------6p4---|-6/7/6-----6-----|---7--------------|
A|-----------------|-7---------------|-----------------|-7----------------|
E|---------7-------|-----------------|---------7-------|------------------|


         G        F
O grande mestre do céu,
      C
nosso criador
          G         F       C
Quando nascemos um dom nos dá
        G         F
E cada um segue a vida
   C
o seu destino
         G         F      C
E nós nascemos só pra cantar
  G   F    C
Eie, iiii, eee
 G   F    C
Ieieieieieie
  G   F    C
Eie, iiii, eee
 G   F    C
Ieieieieieie
              G        F
Quem canta os males espanta
        C
A gente é feliz
            G        F       C
Tal qual um pássaro livre no ar
          G
Pensando bem,
     F         C
Nós temos algo em comum
          G        F       C
Porque nascemos só pra cantar
  G   F    C
Eie, iiii, eee
 G   F    C
Ieieieieieie
  G   F    C
Eie, iiii, eee
 G   F    C
Ieieieieieie
C
  Disse o poeta
           F                C
O artista vai onde o povo está

Por isso cantamos
            F                   C
A qualquer hora, em qualquer lugar
C
  Disse o poeta
           F                C
O artista vai onde o povo está

Por isso cantamos
            F                   C
A qualquer hora, em qualquer lugar


Solo: G F C
E|-------------------|-------------------------------|
B|-------------------|----------------------12-12-14-|
G|---------------8\4-|-4----9----9-11-11/13----------|
D|-7/9-9-9-9-9-9-----|---11---11---------------------|
A|-------------------|-------------------------------|
E|-------------------|-------------------------------|


E|----12----14----16----12----12h14-12----12-|
B|-12----12----12----12----12----------14----|
G|-------------------------------------------|
D|-------------------------------------------|
A|-------------------------------------------|
E|-------------------------------------------|


      G        F
Quem canta os males espanta
        C
A gente é feliz
            G        F       C
Tal qual um pássaro livre no ar
          G
Pensando bem,
     F         C
Nós temos algo em comum
          G        F       C
Porque nascemos só pra cantar
  G   F    C
Eie, iiii, eee
 G   F    C
Ieieieieieie
  G   F    C
Eie, iiii, eee
 G   F    C
Ieieieieieie

(Abafado)

Eie, iiii, eee
Ieieieieieie
Eie, iiii, eee
Ieieieieieie

  G   F    C
Eie, iiii, eee
 G   F    C
Ieieieieieie

                                              C
E|-----------------------|--------------------4--|
B|---------9\7---5p4-----|---------9\7-----4--5--|
G|-----4-4-----6-------4-|-----4-4-------6----4--|
D|-4h6---------------6---|-4h6---------6------6--|
A|-----------------------|--------------------7--|
E|-----------------------|--------------------4--|

  • 1
  • 2
  • 3
  • 4
  • 5
  • 6
  • 7
  • 8
  • 9
  • 10
  • 11
  • 12
    Acordes para:
      Colaboração e revisão:
      • Lucas

      0 comentários

        mostrar mais comentários

        Conseguiu tocar?

        1tocaram0ainda não

        Grave um vídeo tocando Nascemos Pra Cantar e mande pra gente!

        00:00 / 00:00
        outros vídeos desta música
        repetirqualidadeautomática
        • automática
        Outro vídeos desta música
          00:00 / 00:00
          automática
          • automática
          Acordes para:violão e guitarra
          dificuldadeexibiçõescontribuições
          fecharplay/pause subir/descer velocidade
            acordes
            fechar
            OK
            Feedback