Cifra Club

Aprenda

Nova York

Victor e Leo

Cifra: Versão 4 (violão e guitarra)
tom: G
(A música começa com um Abafamento)

Intro: A9  C  A9  C  G (3x)  
       A9  C  A9  C  G  D  A9  C  A9  C  G
(Lick Inicial após o G da 1ª vez da intro)

E|-------------------------3-5/7---15--19\-|
B|-----------------------3---------15------|
G|-----------0-2-2/4-----------------------|
D|-------0h2-------------------------------|
A|---0h2-----------------------------------|
E|-3---------------------------------------|

(Segundo Lick após o G da 2ª vez da intro)

E|--------------------|
B|--------------------|
G|---------5-4-0------|
D|-5-5-7----------2-0-|
A|--------------------|
E|--------------------|

(Na 3ª vez da intro faço uma batida rápida pra baixo no acorde de G)

Am           C           G
Essa é a história de um novo herói
Am          C         G
Cabelos compridos a rolar no vento
Am       C          G
Pela estrada no seu caminhão
Am          C                G
Cravado no peito a sombra de um dragão
C                     G
Tinha um sonho ir pra Nova York
G
levar a namorada
C                   G
Fazer seu caminhão voar nas nuvens
C                 G
Mas enquanto isso na estrada
E|---------------------------------|
B|----------------1-1/3-3-2-2---1--|
G|------------0-2---2/4-4-1-0-0-0--|
D|-------0-2------------------2----|
A|---0-2---------------------------|
E|-3-------------------------------|

Am                 C
Saudade vai, vai, vai
Am                 C
Saudade vem, vem, vem
   Harm.
E|--12----|
B|--12----|
G|--12----|
D|--12----|
A|--------|
E|--------|

        G
te buscar
(Lick da segunda vez que repetir a música)
E|---------------------------------|
B|-----------------1/3-3-3/1-1-1-0-|
G|------------0-2--2/4-4-4/2-0-2-0-|
D|-------0-2-----------------------|
A|---0-2---------------------------|
E|-3-------------------------------|

( D  A9  C  A9  C  G  D  A9  C  A9  C  G
Solo:
E|-3-3-3-3-3-3-3-2-0---------------------------------|
B|-------------------3-3--1-1-1-3-5--1-1-1-3-5-3-1-0-|
G|------------------------2-2-2-4-5--2-2-2-4-5-4-2-0-|
D|---------------------------------------------------|
A|---------------------------------------------------|
E|---------------------------------------------------|

( G )
Composição de CRISTIAN / Ralf
Colaboração e revisão:
  • Rodolfo Inácio
18.324 exibições
    • ½ Tom
    • A
    • Bb
    • B
    • C
    • Db
    • D
    • Eb
    • E
    • F
    • F#
    • G
    • Ab
  • Adicionar à lista

    0 comentários

    Ver todos os comentários

    Conseguiu tocar?

    5 Tocaram 0 Ainda não

    Grave um vídeo tocando Nova York e nos envie!

    00:00 / 00:00
    Outros vídeos desta música
    Repetir Qualidade Automático
    Outros vídeos desta música
    00:00 / 00:00
    Automático

    Cifra Club Pro

    Aproveite o Cifra Club com benefícios exclusivos e sem anúncios
    Cifra Club Pro
    Aproveite o Cifra Club com benefícios exclusivos e sem anúncios
    OK