Cifra Club

Aprenda

Tanta Solidão

Victor e Leo

Cifra: Principal (violão e guitarra)
tom: G
Intro: C  Am  Em  G  C  Am  Em  D

         G
Veja no céu
           Em
Hoje a lua não saiu
      G
Sem você
           C         Am
Nem o meu olhar se abriu
         F           G
Pra não ver tanta solidão

Refrão:
              Am    F     C     G
Queria aquele beijo que você negou
                Am   F     C     G
Queria ao menos uma noite de amor
              Am    F     C     G
Queria aquele beijo que você negou
                Am   F     C     G       (C Am Em G C Am Em D)
Queria ao menos uma noite de amor pra mim

        G
Nada a fazer
             Em
A não ser te esperar
        G
Porque sei
              C   Am       F
Nada nesse mundo irá me fazer
           G
Esquecer você

              Am    F     C     G
Queria aquele beijo que você negou
                Am   F     C     G
Queria ao menos uma noite de amor (2x)

Queria aquele beijo que você negou
Queria ao menos uma noite de amor  (sem tocar)
(solo)

E|-3/5-5-5-5-5---3---3/5-5-5-5-5----8--8--8--8--8--8/3-3-3-3---|
B|-5/7-7-7-7-7---5---5/7-7-7-7-7---10-10-10-10-10-10/5-5-5-5---|
G|-------------------------------------------------------------|
D|-------------------------------------------------------------|
A|-------------------------------------------------------------|
E|-------------------------------------------------------------|

E|------------------------------------------|
B|------------------3-----------------------|
G|--------0-0h2--0h2------0-----------------|
D|----0-2--------------0h2-----0-2----------|
A|-2h3--------------------0h2---------------|
E|------------------------------------------|
Composição de Leo Chaves / Victor Chaves
378.841 exibições
    • ½ Tom
    • A
    • Bb
    • B
    • C
    • Db
    • D
    • Eb
    • E
    • F
    • F#
    • G
    • Ab
  • Adicionar à lista

    0 comentários

    Ver todos os comentários

    Conseguiu tocar?

    11 Tocaram 0 Ainda não

    Grave um vídeo tocando Tanta Solidão e nos envie!

    00:00 / 00:00
    Outros vídeos desta música
    Repetir Qualidade Automático
    Outros vídeos desta música
    00:00 / 00:00
    Automático

    Cifra Club Pro

    Aproveite o Cifra Club com benefícios exclusivos e sem anúncios
    Cifra Club Pro
    Aproveite o Cifra Club com benefícios exclusivos e sem anúncios
    OK