Cifra Club

Telefone Mudo

Victor e Leo

Cifra: Principal (violão e guitarra)
tom: Bb (forma dos acordes no tom de F) Capotraste na 5ª casa
[Tab - Solo Intro]

Parte 1 De 6

E|-5-5-6-6/8---8--8--8-----10-------12----12----12----|
B|-6-6-8-8/10--10-10-10/11----11/13----13----13-------|
G|----------------------------------------------------|
D|----------------------------------------------------|
A|----------------------------------------------------|
E|----------------------------------------------------|

Parte 2 De 6

E|----12----12-------13-------15-------17----17----17-|
B|-13----13----13/15----15/17----17/18----18----18----|
G|----------------------------------------------------|
D|----------------------------------------------------|
A|----------------------------------------------------|
E|----------------------------------------------------|

Parte 3 De 6

E|----17/15-15-------13-------12-------10-------8-----|
B|-18----------17/15----15/13----13/11----11/10---10--|
G|----------------------------------------------------|
D|----------------------------------------------------|
A|----------------------------------------------------|
E|----------------------------------------------------|

Parte 4 De 6

E|-------------------------------------------3--------|
B|-0-1p0---0-------------------------0h1-3/5---5/3-1--|
G|-------2---2p0---0-------------0h2------------------|
D|---------------2---2p0-----0h2----------------------|
A|-----------------------0h2--------------------------|
E|----------------------------------------------------|

Parte 5 De 6

E|----------------------------------------------------|
B|---1---1-------1-1-1---1---1-1-1-1-1---1-1-1-1-1----|
G|---0h2-0---0---0-0-0h2-0---0-0-0-2-0---0-0-0-2-0----|
D|-3-------3-0h3-----------3-----------3--------------|
A|-1-------1---------------1-----------1--------------|
E|----------------------------------------------------|

[Parte 6 De 6]

E|----------------------------------------------------|
B|---1-1-1-1---1---1-1-1-1---1---1--------------------|
G|---0-0-0-0h2-0---0-0-0-0h2-0---0--------------------|
D|-3-------------3-------------3----------------------|
A|-1-------------1-------------1----------------------|
E|----------------------------------------------------|

( C  Am  F  C )
( G  C  G4/D  C/E)
( F  C  G  C  G4/D  C/E)

[Primeira Parte]

     F                               C
Eu quero que risca meu nome da sua agenda
    G              F                   C     
Esqueça o meu telefone, não me ligues mais
     F                              C
Porque já estou cansado de ser o remédio
                 G
Pra curar o seu tédio
                                 C
Quando seus amores não lhe satisfaz

( C  G/B  Am7 )

[Refrão]

    G
Cansei de ser o seu palhaço
   F                 C
Fazer o que sempre quis
                     G
Cansei de curar sua fossa
             F               C  G/B  Am7
Quando você não se sentia feliz
    G
Por isso é que decidi
   F            C
O meu telefone cortar
                        G
Você vai discar várias vezes
          F        G     C
Telefone mudo não pode chamar

( C  G4/D  C/E  F )
( C  G/B  Am7  G  C )
( G4/D  C/E  F )
( C  G/B  Am7  G  C )
( C  G4/D  C/E )

[Refrão]

    G
Cansei de ser o seu palhaço
   F                 C
Fazer o que sempre quis
                     G
Cansei de curar sua fossa
             F               C  G/B  Am7
Quando você não se sentia feliz
    G
Por isso é que decidi
   F            C
O meu telefone cortar
                        G
Você vai discar várias vezes
          F        G     F    Fm  C  
Telefone mudo não pode chamar
00:00 / 00:00
Outros vídeos desta música
Repetir
Outros vídeos desta música
Composição de Franco / Peao Carreiro
730.002 exibições
    • ½ Tom
    • A
    • Bb
    • B
    • C
    • Db
    • D
    • Eb
    • E
    • F
    • F#
    • G
    • Ab
  • Adicionar à lista

    0 comentários

    Ver todos os comentários

    Conseguiu tocar?

    20 Tocaram 1 Ainda não

    Grave um vídeo tocando Telefone Mudo e nos envie!

    Entre para oCifra Club PRO

    Tenha acesso a benefícios exclusivos no App e no Site

    • Chega de anúncios

    • Prioridade de compra em lançamentos

    • Mais recursos no app do Afinador

    • Atendimento Prioritário

    • Descontos nos produtos Cifra Club

    • Ajude a produzir mais conteúdo

    00:00 / 00:00

    Cifra Club Pro

    Aproveite o Cifra Club com benefícios exclusivos e sem anúncios
    Cifra Club Pro
    Aproveite o Cifra Club com benefícios exclusivos e sem anúncios
    OK