Cifra Club

Timidez

Victor e Leo

Cifra: Principal (violão e guitarra)
exibições 322.660
Tom: E
Intro 2x: E C#m A B7

(solo do acordeon)
E|------------------------------------4-4-4-2-2-2-4---------------------------2-2--|
B|-0-2--5-5-5-4-4-4-5-5-5-4-4-4-5-4-2-------------------5-4-2-----5-4-5-0-0--------|
G|------------------------------------------------------------4-2------------------|
D|---------------------------------------------------------------------------------| (2x)
A|---------------------------------------------------------------------------------|
E|---------------------------------------------------------------------------------|

E
timidez
      C#m        E
Nunca me deixou dançar
      C#m
Nem sequer cantar
    A       E     A
Ver você me fez mudar
     B7
Não sei porquê mas
     E      C#m
Com você dancei
     F#m    B7
Por você cantei
E       C#m       F#m
Sonhei, amei, como fui
  B7      E
Jamais serei

( E C#m A B7 )

E
timidez
      C#m        E
Nunca me deixou dançar
      C#m
Nem sequer cantar
    A       E     A
Ver você me fez mudar
     B7
Não sei porquê mas
     E      C#m
Com você dancei
     F#m    B7
Por você cantei
E       C#m       F#m
Sonhei, amei, como fui
  B7      E
Jamais serei

( E C#m A B7 )

E
timidez
      C#m        E
Nunca me deixou dançar
      C#m
Nem sequer cantar
    A       E     A
Ver você me fez mudar
     B7
Não sei porquê mas
     E      C#m
Com você dancei
     F#m    B7
Por você cantei
E       C#m       F#m
Sonhei, amei, como fui
  B7      E
Jamais serei

( E C#m A B7 )

E
timidez
      C#m        E
Nunca me deixou dançar
      C#m
Nem sequer cantar
    A       E     A
Ver você me fez mudar
     B7
Não sei porquê mas
     E      C#m
Com você dancei
     F#m    B7
Por você cantei
E       C#m       F#m
Sonhei, amei, como fui
  B7      E
Jamais serei

( E C#m A B7 )

Final:
E|------------------------------------4-4-4-2-2-2-4---------------------------2-2--|
B|-0-2--5-5-5-4-4-4-5-5-5-4-4-4-5-4-2-------------------5-4-2-----5-4-5-0-0--------|
G|------------------------------------------------------------4-2------------------|
D|---------------------------------------------------------------------------------|
A|---------------------------------------------------------------------------------|
E|---------------------------------------------------------------------------------|

E|-------------------2-4-2-----|
B|-5-4-2------0-2--5-------5---|
G|-------4-2-------------------|
D|-----------------------------|
A|-----------------------------|
E|-----------------------------|
Acordes para:

    0 comentários

    mostrar mais comentários

    Conseguiu tocar?

    20 tocaram 0 ainda não

    Grave um vídeo tocando Timidez e mande pra gente!

    00:00 / 00:00
    outros vídeos desta música
    repetir qualidade Automático
    Outros vídeos desta música
    00:00 / 00:00
    Automático
    OK