Cifra Club

Cada Segundo Com Você

Victor e Vinicius

Cifra: Principal
exibições 2.963
Tom: E (com acordes na forma de D) Capotraste na 2ª casa
Intro:
                 D                            A (na 7° casa)
E|-----4---2-----------4---2-------|-----7--------------7------------12-|
B|-----------5---5-----------5---5-|---------9---9p7--------9---9/12----|
G|---4---4-----4-----4---4-----4---|---8---8---8------8---8---8---------|
D|-2-------------------------------|-9----------------------------------|
A|---------------------------------|------------------------------------|
E|---------------------------------|------------------------------------|

D                       A9
Tudo aconteceu tão de repente
          Bm                           G
Fiquei te olhando ali parado em minha frente
D                                A9
Imaginando uma maneira de poder chegar
         Bm                           G
E te dizer o quanto eu desejava te beijar

Em    D       G             A9
Como mágica você olhou pra mim
 Em       D               G         A9    E|-12-11-------|
Se aproximando e também diz estar a fim   B|-------12/14-|
Em       D            G           A9
Sem perceber então um beijo aconteceu
 Em      D            G            A9  E|-----7-7------12------12-|
Meu universo agora é só você e eu      B|-4/6-----6/11----11\9----|

Refrão:
               D                  A9    B|-12----|
Quero ter pra sempre você do meu lado   G|----11-|

           Bm                       G      G|-11/13-|
Se estou sonhando não quero ser acordado

            D                  A9       B|-12----|
Mudou minha vida, me fez renascer       G|----11-|

            Bm                     G      G|-11/13-|
Quero aproveitar cada segundo com você

               D                  A9    B|-12----|
Quero ter pra sempre você do meu lado   G|----11-|

           Bm                       G      G|-11/13-|
Se estou sonhando não quero ser acordado

            D                  A9       B|-12----|
Mudou minha vida, me fez renascer       G|----11-|

            Bm                      G      G|-11/13-|
Quero aproveitar cada segundo com você
Solo:
    D             A              Bm                G
E|-------------------------------------------------------------------|
B|-2-7/9-7\5-4-5--2-7/9-7\5-4-5--2-7/9-7\5-4-5/10-10-10-10-10-10\9-9-|
G|-------------------------------------------------------------------|
D|-------------------------------------------------------------------|
A|-------------------------------------------------------------------|
E|-------------------------------------------------------------------|
    D             A              Bm      G
E|----------------------------------------12--------12\-|
B|-2-7/9-7\5-4-5--2-7/9-7\5-4-5-----12-------9-10-------|
G|------------------------------6-6----11---------------|
D|------------------------------------------------------|
A|------------------------------------------------------|
E|------------------------------------------------------|

 D                       A9     E|-2-2-2-2-|
Tudo aconteceu tão de repente   B|-2-2-2-2-|
          Bm                           G
Fiquei te olhando ali parado em minha frente
D                                A9
Imaginando uma maneira de poder chegar
         Bm                           G
E te dizer o quanto eu desejava te beijar

 Em    D       G             A9  B|-5-5-2h5p2-----5/7-|
Como mágica você olhou pra mim   G|-----------6-6-----|

 Em       D               G         A9    E|-----------9-9\7------|
Se aproximando e também diz estar a fim   B|-7/9-9\7/9-------9/12-|

 Em       D            G           A9     E|----------7---|
Sem perceber então um beijo aconteceu     B|-5-2--7/9---7-|

 Em      D            G            A9     E|-----------9-9\7------|
Meu universo agora é só você e eu         B|-7/9-9\7/9-------9/12-|

Refrão:
               D                  A9   B|-12----|
Quero ter pra sempre você do meu lado  G|----11-|

           Bm                       G     G|-11/13-|
Se estou sonhando não quero ser acordado

            D                  A9      B|-12----|
Mudou minha vida, me fez renascer      G|----11-|

            Bm                      G     G|-11/13-|
Quero aproveitar cada segundo com você

               D                  A9   B|-12----|
Quero ter pra sempre você do meu lado  G|----11-|

           Bm                       G    G|-11/13-|
Se estou sonhando não quero ser acordado

            D                  A9      B|-12----|
Mudou minha vida, me fez renascer      G|----11-|

            Bm                      G    G|-11/13-|
Quero aproveitar cada segundo com você

              D                  A9
Quero ter pra sempre você do meu lado
           Bm                       G
Se estou sonhando não quero ser acordado
           D                  A9
Mudou minha vida, me fez renascer
            Bm                      G
Quero aproveitar cada segundo com você

    D
B|-2-7/9-7\5-4-5-|

A9
Cada segundo com você

    Bm                 G
B|-2-7/9-7\5-4-5/10-10-10-10-10-10\9-9-|

D
Cada segundo com você

 A9
B|-2-7/9-7\5-4-5-|

Bm
Cada segundo com você

     G
E|-------------5|
B|-2-7/9-7\5-4--|
Acordes para:
    Colaboração e revisão:
    • Allan caixeta
    • jose mariano

    0 comentários

      mostrar mais comentários

      Conseguiu tocar?

      1tocaram0ainda não

      Grave um vídeo tocando Cada Segundo Com Você e mande pra gente!

      00:00 / 00:00
      outros vídeos desta música
      repetirqualidadeautomática
      Outro vídeos desta música
        00:00 / 00:00
        automática
        OK