Cifra Club

Me Derramar

Vineyard

Cifra: Principal
exibições 617.073
Tom: G
[Intro] G  D/F#  Em  C

[Solo] Em  C

E|-------------------------------------------------------------------------|
B|--------------------------------------------------------8--8--8-----8\---|
G|--0-------------------------------------------------/9-----------9-------|
D|-----------7--7b9r7~~\-------5--7--7b9--5h7--5~~\------------------------|
A|-------/7----------------/7----------------------------------------------|
E|-------------------------------------------------------------------------|

       G    D/F#
Eis-me aqui outra vez
 Em             C
Diante de Ti abro meu coração
      G          D/F#
Meu clamor Tu escutas
   Em               C
E fazes cair as barreiras em mim
    G               D/F#
És fiel, Senhor, e dizes
   Em                 C
Palavras de amor e esperança sem fim
    G      D/F#
Ao sentir Teu toque
     Em               C
Por Tua bondade libertas meu ser

    Am    G/B   C
No calor deste lugar
D
Eu venho

 G            D
Me derramar, dizer que Te amo
 Em             C
Me derramar, dizer Te preciso
 G              D
Me derramar, dizer que sou grato
 Em             C
Me derramar, dizer que És formoso

[Solo] G  D  Em  C

E|--10-----10-------10------------------10-----10-----10------10-----------10/12~~---|
B|--10b12--10b12~~--10b12r10p8--10~~\---10b12--10b12--10b12---10b12r10--8------------|
G|-----------------------------------------------------------------------------------|
D|-----------------------------------------------------------------------------------|
A|-----------------------------------------------------------------------------------|
E|-----------------------------------------------------------------------------------|

E|-----------------------------------------------------------------------------------|
B|--13b15--13--11--13----------------------------------------------------------------|
G|---------------------14b16--14--12------12~--12~--12~--12~------12-----------------|
D|------------------------------------14----------------------14---------------------|
A|-----------------------------------------------------------------------------------|
E|-----------------------------------------------------------------------------------|

E|-----------------------------------------------------------------------------------|
B|-------------------------17b19~~--17b19--17b18--17--15-------15~--15~--15~--15\----|
G|--14p12--14b16--12~~\-----------------------------------16---16~--16~---16~--16\---|
D|-----------------------------------------------------------------------------------|
A|-----------------------------------------------------------------------------------|
E|-----------------------------------------------------------------------------------|

0 comentários

    mostrar mais comentários

    Conseguiu tocar?

    64tocaram1ainda não

    Grave um vídeo tocando Me Derramar e mande pra gente!

    00:00 / 00:00
    outros vídeos desta música
    repetirqualidadeautomática
    Outro vídeos desta música
      00:00 / 00:00
      automática
      OK