Cifra Club

Quebrantado

Vineyard

Cifra: Principal
exibições 1.212.429
Tom: C
[Intro]  C  G  Am  F

               C
Eu olho para cruz
                G
E para cruz eu vou
                      Am
Do seu sofrer participar
                       F
Da sua obra eu vou cantar

          C
Meu Salvador
             G
Na cruz mostrou
           Am
O amor do pai
         F
o justo Deus

C
   Pela cruz, me chamou
Am                         G
   Gentilmente me atraiu e eu
                     F
Sem palavras me aproximo
                      C
Quebrantado por seu amor

C  Am  G  F

           C
Imerecida vida
            G
De graça recebi
          Am
Por sua cruz
             F
Da morte me livrou

             C
Trouxe-me a vida
                G
Eu estava condenado
                 Am
Mas agora pela cruz
               F
Eu fui reconciliado

C
   Pela cruz, me chamou
Am                         G
   Gentilmente me atraiu e eu
                     F
Sem palavras me aproximo
                      C
Quebrantado por seu amor

[Solo]  C  Am  G  F


E|-15----15----15----------------------------------|
B|-15b17-15b17-15b17r15p13-15-13~------------------|
G|--------------------------------9-9/10-10/12-12~-|
D|-------------------------------------------------|
A|-------------------------------------------------|
E|-------------------------------------------------|

E|-------------------------------------------------|
B|-12b13-12b13r12p10-12~----10~-13b15-13b15 13b15~-|
G|-----------------------/9------------------------|
D|-------------------------------------------------|
A|-------------------------------------------------|
E|-------------------------------------------------|

E|-------------------------------------------------|
B|-15b17-T16/18p17T-17r15-15~----------------------|
G|----------------------------3h5-3-7-5---5-7-5~---|
D|----------------------------3h5-3-7-5-7-5-7-5~---|
A|--------------------------------------7----------|
E|-------------------------------------------------|

E|-------------------------------------------------|
B|-------------------------------------------------|
G|-5p2-5--7p-5-7--9p-7--9--12p-9--12--14p-12---14--|
D|----5-------7-------10--------12----------14-----|
A|-------------------------------------------------|
E|-------------------------------------------------|

E|------------------15-17-17b20-17b19-15p13-15--17b20---17b19-15p13--15-------|
B|-13-15-13-15/--17-----------------------------------------------------------|
G|----------------------------------------------------------------------------|
D|----------------------------------------------------------------------------|
A|----------------------------------------------------------------------------|
E|----------------------------------------------------------------------------|

E|-----12-12-12--17-17-17p15-15-15p12-12-12-------------|        
B|------------------------------------------------------|   
G|------------------------------------------------------|         
D|------------------------------------------------------|         
A|------------------------------------------------------|       
E|------------------------------------------------------|

E|----------12------------------------------------------| 
B|-----15b17---15b17----13--15~-------------------------|
G|------------------------------------------------------|
D|------------------------------------------------------|
A|------------------------------------------------------|
E|------------------------------------------------------| 

E|12-13-12----------------------------------------------|
B|--------15--13~---------------------------------------|
G|------------------------------------------------------|
D|------------------------------------------------------|
A|------------------------------------------------------|
E|------------------------------------------------------|

 C
Pela cruz, me chamou
 Am                     G
Gentilmente me atraiu e eu
                     F
Sem palavras me aproximo
                      C
Quebrantado por seu amor 

Dm                     F
Impressionante é o seu amor
 Dm                  F
Me redimiu e me mostrou
            G
O quanto é fiel

0 comentários

    mostrar mais comentários

    Conseguiu tocar?

    115tocaram2ainda não

    Grave um vídeo tocando Quebrantado e mande pra gente!

    00:00 / 00:00
    outros vídeos desta música
    repetirqualidadeautomática
    Outro vídeos desta música
      00:00 / 00:00
      automática
      OK